  0
SECTION
  2
HEADER
  9
$ACADVER
  1
AC1009
  9
$INSBASE
 10
0
 20
0
 30
0
  9
$EXTMIN
 10
0
 20
0
  9
$EXTMAX
 10
840
 20
594
  9
$LIMMIN
 10
0
 20
0
  9
$LIMMAX
 10
840
 20
594
  9
$LTSCALE
 40
2
  0
ENDSEC
  0
SECTION
  2
TABLES
  0
TABLE
  2
LTYPE
 70
     9
  0
LTYPE
  2
CONTINUOUS
 70
    64
  3
実線
 72
    65
 73
     0
 40
0.0
  0
LTYPE
  2
DASHED1
 70
    64
  3
--  --  --  --  --  --  --  --  
 72
    65
 73
     2
 40
2.5
 49
1.25
 49
-1.25
  0
LTYPE
  2
DASHED2
 70
    64
  3
----    ----    ----    ----    
 72
    65
 73
     2
 40
5.0
 49
2.5
 49
-2.5
  0
LTYPE
  2
DASHED3
 70
    64
  3
------  ------  ------  ------  
 72
    65
 73
     2
 40
5.0
 49
3.75
 49
-1.25
  0
LTYPE
  2
CENTER1
 70
    64
  3
----- - ----- - ----- - ----- - 
 72
    65
 73
     4
 40
10.0
 49
6.25
 49
-1.25
 49
1.25
 49
-1.25
  0
LTYPE
  2
CENTER2
 70
    64
  3
----------  --  ----------  --  
 72
    65
 73
     4
 40
20.0
 49
12.5
 49
-2.5
 49
2.5
 49
-2.5
  0
LTYPE
  2
PHANTOM1
 70
    64
  3
--- - - --- - - --- - - --- - - 
 72
    65
 73
     6
 40
10.0
 49
3.25
 49
-1.25
 49
1.25
 49
-1.25
 49
1.25
 49
-1.25
  0
LTYPE
  2
PHANTOM2
 70
    64
  3
--------  -  -  --------  -  -  
 72
    65
 73
     6
 40
20.0
 49
10.0
 49
-2.5
 49
1.25
 49
-2.5
 49
1.25
 49
-2.5
  0
LTYPE
  2
DOT
 70
    64
  3
-   -   -   -   -   -   -   -   
 72
    65
 73
     2
 40
2.5
 49
0.625
 49
-1.875
  0
LTYPE
  2
DUMMY
 70
    64
  3
ダミー
 72
    65
 73
     0
 40
0.0
  0
LTYPE
  2
RAND1
 70
    64
  3
ランダム線1
 72
    65
 73
     4
 40
10.0
 49
1.0
 49
-2.0
 49
3.0
 49
-4.0
  0
LTYPE
  2
RAND2
 70
    64
  3
ランダム線2
 72
    65
 73
     4
 40
14.0
 49
2.0
 49
-3.0
 49
4.0
 49
-5.0
  0
LTYPE
  2
RAND3
 70
    64
  3
ランダム線3
 72
    65
 73
     4
 40
18.0
 49
3.0
 49
-4.0
 49
5.0
 49
-6.0
  0
LTYPE
  2
RAND4
 70
    64
  3
ランダム線4
 72
    65
 73
     4
 40
22.0
 49
4.0
 49
-5.0
 49
6.0
 49
-7.0
  0
LTYPE
  2
RAND5
 70
    64
  3
ランダム線5
 72
    65
 73
     4
 40
26.0
 49
5.0
 49
-6.0
 49
7.0
 49
-8.0
  0
LTYPE
  2
LONG1
 70
    64
  3
----------  --  ----------  --  
 72
    65
 73
     4
 40
40.0
 49
32.5
 49
-2.5
 49
2.5
 49
-2.5
  0
LTYPE
  2
LONG2
 70
    64
  3
--------  -  -  --------  -  -  
 72
    65
 73
     6
 40
40.0
 49
30.0
 49
-2.5
 49
1.25
 49
-2.5
 49
1.25
 49
-2.5
  0
LTYPE
  2
LONG3
 70
    64
  3
+++++++++++++++..+++++++++++++++
 72
    65
 73
     2
 40
40.0
 49
37.5
 49
-2.5
  0
LTYPE
  2
LONG4
 70
    64
  3
+++++++++++++++..+++++++++++++++
 72
    65
 73
     2
 40
80.0
 49
75.0
 49
-5.0
  0
LTYPE
  2
LONG5
 70
    64
  3
----------  --  ----------  --  
 72
    65
 73
     4
 40
60.0
 49
37.5
 49
-7.5
 49
7.5
 49
-7.5
  0
LTYPE
  2
dashed
 70
   64
  3
-------   -------------   ------
 72
   65
 73
    2
 40
7.5
 49
6
 49
-1.5
  0
LTYPE
  2
dashed_spaced
 70
   64
  3
----        --------        ----
 72
   65
 73
    2
 40
12
 49
6
 49
-6
  0
LTYPE
  2
long_dashed_dotted
 70
   64
  3
------------- --- --------------
 72
   65
 73
    4
 40
15.25
 49
12
 49
-1.5
 49
0.25
 49
-1.5
  0
LTYPE
  2
long_dashed_double-dotted
 70
   64
  3
----------- --- --- ------------
 72
   65
 73
    6
 40
17
 49
12
 49
-1.5
 49
0.25
 49
-1.5
 49
0.25
 49
-1.5
  0
LTYPE
  2
long_dashed_triplicate-dotted
 70
   64
  3
--------- --- --- --- ----------
 72
   65
 73
    8
 40
18.75
 49
12
 49
-1.5
 49
0.25
 49
-1.5
 49
0.25
 49
-1.5
 49
0.25
 49
-1.5
  0
LTYPE
  2
dotted
 70
   64
  3
   -       -       -       -    
 72
   65
 73
    2
 40
1.75
 49
0.25
 49
-1.5
  0
LTYPE
  2
chain
 70
   64
  3
-------------- -- --------------
 72
   65
 73
    4
 40
18.5
 49
12
 49
-1.5
 49
3.5
 49
-1.5
  0
LTYPE
  2
chain_double_dash
 70
   64
  3
------------ -- -- -------------
 72
   65
 73
    6
 40
23.5
 49
12
 49
-1.5
 49
3.5
 49
-1.5
 49
3.5
 49
-1.5
  0
LTYPE
  2
dashed_dotted
 70
   64
  3
-----------     -     ----------
 72
   65
 73
    4
 40
9.25
 49
6
 49
-1.5
 49
0.25
 49
-1.5
  0
LTYPE
  2
double-dashed_dotted
 70
   64
  3
------   -----------   -   -----
 72
   65
 73
    6
 40
16.75
 49
6
 49
-1.5
 49
6
 49
-1.5
 49
0.25
 49
-1.5
  0
LTYPE
  2
dashed_double-dotted
 70
   64
  3
---------    -    -    ---------
 72
   65
 73
    6
 40
11
 49
6
 49
-1.5
 49
0.25
 49
-1.5
 49
0.25
 49
-1.5
  0
LTYPE
  2
double-dashed_double-dotted
 70
   64
  3
-----   ---------   -   -   ----
 72
   65
 73
    8
 40
18.5
 49
6
 49
-1.5
 49
6
 49
-1.5
 49
0.25
 49
-1.5
 49
0.25
 49
-1.5
  0
LTYPE
  2
dashed_triplicate-dotted
 70
   64
  3
-------    -    -    -    ------
 72
   65
 73
    8
 40
12.75
 49
6
 49
-1.5
 49
0.25
 49
-1.5
 49
0.25
 49
-1.5
 49
0.25
 49
-1.5
  0
LTYPE
  2
double-dashed_triplicate-dotted
 70
   64
  3
-----  ---------  -  -  -  -----
 72
   65
 73
   10
 40
20.25
 49
6
 49
-1.5
 49
6
 49
-1.5
 49
0.25
 49
-1.5
 49
0.25
 49
-1.5
 49
0.25
 49
-1.5
  0
LTYPE
  2
undefined
 70
   64
  3
--------------------------------
 72
   65
 73
    0
 40
0
  0
ENDTAB
  0
TABLE
  2
STYLE
  5
3
100
AcDbSymbolTable
 70
     1
  0
STYLE
  5
10
100
AcDbSymbolTableRecord
100
AcDbTextStyleTableRecord
  2
STANDARD
 70
     0
 40
0.0
 41
1.0
 50
0.0
 71
     0
 42
0.2
  3
txt
  4
bigfont.shx
  0
STYLE
  5
26
100
AcDbSymbolTableRecord
100
AcDbTextStyleTableRecord
  2
TATEGAKI
 70
    68
 40
0.0
 41
1.0
 50
0.0
 71
     0
 42
1.0
  3
txt
  4
bigfont.shx
  0
ENDTAB
  0
TABLE
  2
LAYER
 70
    6
  0
LAYER
  2
_0-1_一般図
 70
   64
 62
    7
  6
CONTINUOUS
  0
LAYER
  2
_0-9_
 70
   64
 62
    7
  6
CONTINUOUS
  0
LAYER
  2
_0-a_
 70
   64
 62
    7
  6
CONTINUOUS
  0
LAYER
  2
_f-1_一般図
 70
   64
 62
    7
  6
CONTINUOUS
  0
LAYER
  2
_f-a_
 70
   64
 62
    7
  6
CONTINUOUS
  0
LAYER
  2
ADD_LINE
 70
   64
 62
    7
  6
CONTINUOUS
  0
ENDTAB
  0
ENDSEC
  0
SECTION
  2
BLOCKS
  0
BLOCK
  2
-000-at-140
 70
   64
 10
0
 20
0
 30
0
  0
CIRCLE
  8
_0-1_一般図
  6
CONTINUOUS
 62
    7
 10
0
 20
0
 40
140
  0
ARC
  8
_0-1_一般図
  6
CONTINUOUS
 62
    7
 10
0.915163116848106
 20
-135.79691629955946
 40
0.4
 50
203.77109757088488
 51
270.38612209909377
  0
ARC
  8
_0-1_一般図
  6
CONTINUOUS
 62
    7
 10
0
 20
-136.19999999999999
 40
0.5999999999999943
 50
23.771097570884791
 51
156.22890242911558
  0
ARC
  8
_0-1_一般図
  6
CONTINUOUS
 62
    7
 10
0
 20
0
 40
136.19999999999999
 50
270.38612209909422
 51
269.61387790090578
  0
ARC
  8
_0-1_一般図
  6
CONTINUOUS
 62
    7
 10
-0.915163116848106
 20
-135.79691629955946
 40
0.4
 50
269.61387790090623
 51
336.22890242911512
  0
ENDBLK
  0
ENDSEC
  0
SECTION
  2
ENTITIES
  0
LINE
  8
ADD_LINE
  6
DOT
 62
    9
 10
538.67385039458418
 20
50
 11
538.67385039458418
 21
25
  0
LINE
  8
ADD_LINE
  6
DOT
 62
    9
 10
578.67385039458418
 20
50
 11
578.67385039458418
 21
25
  0
LINE
  8
ADD_LINE
  6
DOT
 62
    9
 10
820.51077559187615
 20
50
 11
820.51077559187615
 21
25
  0
LINE
  8
ADD_LINE
  6
DOT
 62
    9
 10
60.54106559187619
 20
50
 11
60.54106559187619
 21
25
  0
TEXT
  8
_f-a_
 62
    7
 10
289.60745799323013
 20
50
 40
6
 41
0.8333333333333333
 50
0
  1
名　　称
  0
TEXT
  8
_f-a_
 62
    7
 10
548.67385039458418
 20
50
 40
6
 41
0.8333333333333333
 50
0
  1
縮　　尺
  0
TEXT
  8
_f-a_
 62
    7
 10
689.59231299323017
 20
50
 40
6
 41
0.8333333333333333
 50
0
  1
品　　番
  0
LINE
  8
ADD_LINE
  6
DOT
 62
    9
 10
60.54106559187619
 20
50
 11
820.51077559187615
 21
50
  0
LINE
  8
ADD_LINE
  6
DOT
 62
    9
 10
60.54106559187619
 20
25
 11
820.51077559187615
 21
25
  0
TEXT
  8
_0-a_
 62
    3
 10
552.17385039458418
 20
32.5
 40
10
 41
0.8
 50
0
  1
1/2
  0
TEXT
  8
_0-a_
 62
    3
 10
686.34231299323017
 20
32.5
 40
10
 41
0.8
 50
0
  1
AT-140
  0
LINE
  8
_0-1_一般図
  6
CENTER1
 62
    4
 10
63.490143066477117
 20
320
 11
218.04148631842591
 21
320
  0
LINE
  8
_0-9_
  6
CONTINUOUS
 62
    4
 10
71.125653993480057
 20
224
 11
71.125653993480057
 21
318
  0
LINE
  8
_0-9_
  6
CONTINUOUS
 62
    4
 10
211.12565399348006
 20
224
 11
211.12565399348006
 21
318
  0
POINT
  8
_0-9_
 62
    4
 10
82.149323995759801
 20
285.94999999999999
  0
POINT
  8
_0-9_
 62
    4
 10
200.10198399120031
 20
354.04999999999995
  0
POINT
  8
_0-9_
 62
    4
 10
200.10198399120031
 20
354.04999999999995
  0
POINT
  8
_0-9_
 62
    4
 10
201.7474338563386
 20
355.00000092257562
  0
LINE
  8
_0-9_
  6
CONTINUOUS
 62
    4
 10
200.7474338563386
 20
356.73205173014446
 11
200.74743438898787
 21
356.7320508075689
  0
LINE
  8
_0-9_
  6
CONTINUOUS
 62
    4
 10
200.10198399120031
 20
354.04999999999995
 11
201.7474338563386
 21
355.00000092257562
  0
TEXT
  8
_0-9_
 62
    3
 10
204.75447707504281
 20
357.89081867273859
 40
10
 41
0.8
 50
30.000000000000099
  1
1.9
  0
LINE
  8
_0-9_
  6
CONTINUOUS
 62
    4
 10
82.149323995759801
 20
285.94999999999999
 11
200.10198399120031
 21
354.04999999999995
  0
TEXT
  8
_0-9_
 62
    3
 10
127.20226023482127
 20
313.11602540378442
 40
10
 41
0.8
 50
30.000000000000018
  1
φ136.2
  0
POINT
  8
_0-9_
 62
    4
 10
71.125653993480057
 20
226
  0
POINT
  8
_0-9_
 62
    4
 10
211.12565399348006
 20
226
  0
LINE
  8
_0-9_
  6
CONTINUOUS
 62
    4
 10
71.125653993480057
 20
226
 11
211.12565399348006
 21
226
  0
TEXT
  8
_0-9_
 62
    3
 10
130.12565399348006
 20
227
 40
10
 41
0.8
 50
0
  1
φ140
  0
LINE
  8
_0-1_一般図
  6
CONTINUOUS
 62
    7
 10
293.87434600652028
 20
250
 11
488.18667685586007
 21
250
  0
INSERT
  2
-000-at-140
  8
_0-1_一般図
 10
141.12565399348006
 20
319.99999999999994
 41
0.5
 42
0.5
 50
0
  0
LINE
  8
_0-1_一般図
  6
CENTER1
 62
    4
 10
141.12565399348006
 20
401.85338014937673
 11
141.12565399348006
 21
241.09808341650654
  0
LINE
  8
_0-1_一般図
  6
CONTINUOUS
 62
    7
 10
293.87434600652028
 20
250
 11
293.87434600652028
 21
389.99999999999994
  0
POINT
  8
_0-9_
 62
    4
 10
293.87434600652028
 20
413.99999999999994
  0
LINE
  8
_0-9_
  6
CONTINUOUS
 62
    4
 10
293.87434600652028
 20
415.99999999999994
 11
293.87434600652028
 21
391.99999999999994
  0
LINE
  8
_0-1_一般図
  6
CONTINUOUS
 62
    7
 10
293.87434600652028
 20
389.99999999999994
 11
488.18667685586007
 21
389.99999999999994
  0
LINE
  8
_0-9_
  6
CONTINUOUS
 62
    4
 10
293.87434600652028
 20
413.99999999999994
 11
703.87434600652023
 21
413.99999999999994
  0
ARC
  8
_0-1_一般図
  6
CONTINUOUS
 62
    7
 10
769.12851795266465
 20
377.79999999999995
 40
10
 50
81.469234390051867
 51
90
  0
LINE
  8
_0-1_一般図
  6
CONTINUOUS
 62
    7
 10
769.12851795266454
 20
387.79999999999995
 11
703.87434600652023
 21
387.80000000000001
  0
ARC
  8
_0-1_一般図
  6
CONTINUOUS
 62
    7
 10
769.12851795266454
 20
262.20000000000005
 40
10
 50
270
 51
278.53076560994816
  0
LINE
  8
_0-1_一般図
  6
CONTINUOUS
 62
    7
 10
769.12851795266454
 20
252.20000000000005
 11
703.87434600652023
 21
252.19999999999999
  0
LINE
  8
_0-1_一般図
  6
CONTINUOUS
 62
    7
 10
770.61192248196699
 20
387.68936352868292
 11
774.87434600652023
 21
387.04999999999995
  0
LINE
  8
_0-1_一般図
  6
CONTINUOUS
 62
    7
 10
774.87434600652023
 20
387.04999999999995
 11
774.87434600652023
 21
252.95000000000005
  0
LINE
  8
_0-1_一般図
  6
CONTINUOUS
 62
    7
 10
770.61192248196699
 20
252.31063647131703
 11
774.87434600652023
 21
252.95000000000005
  0
ARC
  8
_0-1_一般図
  6
CONTINUOUS
 62
    7
 10
697.61655086765541
 20
260
 40
10
 50
270
 51
308.7394245978557
  0
LINE
  8
_0-1_一般図
  6
CONTINUOUS
 62
    7
 10
509.27527608148876
 20
250
 11
697.61655086765541
 21
250
  0
ARC
  8
_0-1_一般図
  6
CONTINUOUS
 62
    7
 10
697.61655086765541
 20
379.99999999999994
 40
10
 50
51.260575402144319
 51
90
  0
LINE
  8
_0-1_一般図
  6
CONTINUOUS
 62
    7
 10
509.27527608148876
 20
389.99999999999994
 11
697.61655086765541
 21
389.99999999999994
  0
LINE
  8
_0-1_一般図
  6
CENTER1
 62
    4
 10
284.84553590553799
 20
320
 11
783.509171627981
 21
320
  0
LINE
  8
_0-1_一般図
  6
CONTINUOUS
 62
    5
 10
703.87434600652023
 20
383.55515843252601
 11
703.87434600652023
 21
255.47045310760723
  0
LINE
  8
_0-1_一般図
  6
CONTINUOUS
 62
    5
 10
769.87434600652023
 20
383.55515843252601
 11
769.87434600652023
 21
255.47045310760723
  0
POINT
  8
_0-9_
 62
    4
 10
703.87434600652023
 20
413.99999999999994
  0
POINT
  8
_0-9_
 62
    4
 10
774.87434600652023
 20
413.99999999999994
  0
LINE
  8
_0-9_
  6
CONTINUOUS
 62
    4
 10
703.87434600652023
 20
415.99999999999994
 11
703.87434600652023
 21
389.80000000000001
  0
LINE
  8
_0-9_
  6
CONTINUOUS
 62
    4
 10
774.87434600652023
 20
415.99999999999994
 11
774.87434600652023
 21
389.04999999999995
  0
LINE
  8
_0-9_
  6
CONTINUOUS
 62
    4
 10
703.87434600652023
 20
413.99999999999994
 11
774.87434600652023
 21
413.99999999999994
  0
TEXT
  8
_0-9_
 62
    3
 10
735.12434600652023
 20
414.99999999999994
 40
10
 41
0.8
 50
0
  1
71
  0
TEXT
  8
_0-9_
 62
    3
 10
465.37434600652028
 20
414.99999999999994
 40
10
 41
0.8
 50
0
  1
900・2900・3900
  0
TEXT
  8
_0-a_
 62
    3
 10
187.35745799323013
 20
32.5
 40
10
 41
0.8
 50
0
  1
アルミたてとい新型　丸バンドタイプ(接続部一体成形)
  0
ENDSEC
  0
EOF
