  0
SECTION
  2
HEADER
  9
$ACADVER
  1
AC1009
  9
$INSBASE
 10
0
 20
0
 30
0
  9
$EXTMIN
 10
0
 20
0
  9
$EXTMAX
 10
840
 20
594
  9
$LIMMIN
 10
0
 20
0
  9
$LIMMAX
 10
840
 20
594
  9
$LTSCALE
 40
2
  0
ENDSEC
  0
SECTION
  2
TABLES
  0
TABLE
  2
LTYPE
 70
     9
  0
LTYPE
  2
CONTINUOUS
 70
    64
  3
実線
 72
    65
 73
     0
 40
0.0
  0
LTYPE
  2
DASHED1
 70
    64
  3
--  --  --  --  --  --  --  --  
 72
    65
 73
     2
 40
2.5
 49
1.25
 49
-1.25
  0
LTYPE
  2
DASHED2
 70
    64
  3
----    ----    ----    ----    
 72
    65
 73
     2
 40
5.0
 49
2.5
 49
-2.5
  0
LTYPE
  2
DASHED3
 70
    64
  3
------  ------  ------  ------  
 72
    65
 73
     2
 40
5.0
 49
3.75
 49
-1.25
  0
LTYPE
  2
CENTER1
 70
    64
  3
----- - ----- - ----- - ----- - 
 72
    65
 73
     4
 40
10.0
 49
6.25
 49
-1.25
 49
1.25
 49
-1.25
  0
LTYPE
  2
CENTER2
 70
    64
  3
----------  --  ----------  --  
 72
    65
 73
     4
 40
20.0
 49
12.5
 49
-2.5
 49
2.5
 49
-2.5
  0
LTYPE
  2
PHANTOM1
 70
    64
  3
--- - - --- - - --- - - --- - - 
 72
    65
 73
     6
 40
10.0
 49
3.25
 49
-1.25
 49
1.25
 49
-1.25
 49
1.25
 49
-1.25
  0
LTYPE
  2
PHANTOM2
 70
    64
  3
--------  -  -  --------  -  -  
 72
    65
 73
     6
 40
20.0
 49
10.0
 49
-2.5
 49
1.25
 49
-2.5
 49
1.25
 49
-2.5
  0
LTYPE
  2
DOT
 70
    64
  3
-   -   -   -   -   -   -   -   
 72
    65
 73
     2
 40
2.5
 49
0.625
 49
-1.875
  0
LTYPE
  2
DUMMY
 70
    64
  3
ダミー
 72
    65
 73
     0
 40
0.0
  0
LTYPE
  2
RAND1
 70
    64
  3
ランダム線1
 72
    65
 73
     4
 40
10.0
 49
1.0
 49
-2.0
 49
3.0
 49
-4.0
  0
LTYPE
  2
RAND2
 70
    64
  3
ランダム線2
 72
    65
 73
     4
 40
14.0
 49
2.0
 49
-3.0
 49
4.0
 49
-5.0
  0
LTYPE
  2
RAND3
 70
    64
  3
ランダム線3
 72
    65
 73
     4
 40
18.0
 49
3.0
 49
-4.0
 49
5.0
 49
-6.0
  0
LTYPE
  2
RAND4
 70
    64
  3
ランダム線4
 72
    65
 73
     4
 40
22.0
 49
4.0
 49
-5.0
 49
6.0
 49
-7.0
  0
LTYPE
  2
RAND5
 70
    64
  3
ランダム線5
 72
    65
 73
     4
 40
26.0
 49
5.0
 49
-6.0
 49
7.0
 49
-8.0
  0
LTYPE
  2
LONG1
 70
    64
  3
----------  --  ----------  --  
 72
    65
 73
     4
 40
40.0
 49
32.5
 49
-2.5
 49
2.5
 49
-2.5
  0
LTYPE
  2
LONG2
 70
    64
  3
--------  -  -  --------  -  -  
 72
    65
 73
     6
 40
40.0
 49
30.0
 49
-2.5
 49
1.25
 49
-2.5
 49
1.25
 49
-2.5
  0
LTYPE
  2
LONG3
 70
    64
  3
+++++++++++++++..+++++++++++++++
 72
    65
 73
     2
 40
40.0
 49
37.5
 49
-2.5
  0
LTYPE
  2
LONG4
 70
    64
  3
+++++++++++++++..+++++++++++++++
 72
    65
 73
     2
 40
80.0
 49
75.0
 49
-5.0
  0
LTYPE
  2
LONG5
 70
    64
  3
----------  --  ----------  --  
 72
    65
 73
     4
 40
60.0
 49
37.5
 49
-7.5
 49
7.5
 49
-7.5
  0
LTYPE
  2
dashed
 70
   64
  3
-------   -------------   ------
 72
   65
 73
    2
 40
7.5
 49
6
 49
-1.5
  0
LTYPE
  2
dashed_spaced
 70
   64
  3
----        --------        ----
 72
   65
 73
    2
 40
12
 49
6
 49
-6
  0
LTYPE
  2
long_dashed_dotted
 70
   64
  3
------------- --- --------------
 72
   65
 73
    4
 40
15.25
 49
12
 49
-1.5
 49
0.25
 49
-1.5
  0
LTYPE
  2
long_dashed_double-dotted
 70
   64
  3
----------- --- --- ------------
 72
   65
 73
    6
 40
17
 49
12
 49
-1.5
 49
0.25
 49
-1.5
 49
0.25
 49
-1.5
  0
LTYPE
  2
long_dashed_triplicate-dotted
 70
   64
  3
--------- --- --- --- ----------
 72
   65
 73
    8
 40
18.75
 49
12
 49
-1.5
 49
0.25
 49
-1.5
 49
0.25
 49
-1.5
 49
0.25
 49
-1.5
  0
LTYPE
  2
dotted
 70
   64
  3
   -       -       -       -    
 72
   65
 73
    2
 40
1.75
 49
0.25
 49
-1.5
  0
LTYPE
  2
chain
 70
   64
  3
-------------- -- --------------
 72
   65
 73
    4
 40
18.5
 49
12
 49
-1.5
 49
3.5
 49
-1.5
  0
LTYPE
  2
chain_double_dash
 70
   64
  3
------------ -- -- -------------
 72
   65
 73
    6
 40
23.5
 49
12
 49
-1.5
 49
3.5
 49
-1.5
 49
3.5
 49
-1.5
  0
LTYPE
  2
dashed_dotted
 70
   64
  3
-----------     -     ----------
 72
   65
 73
    4
 40
9.25
 49
6
 49
-1.5
 49
0.25
 49
-1.5
  0
LTYPE
  2
double-dashed_dotted
 70
   64
  3
------   -----------   -   -----
 72
   65
 73
    6
 40
16.75
 49
6
 49
-1.5
 49
6
 49
-1.5
 49
0.25
 49
-1.5
  0
LTYPE
  2
dashed_double-dotted
 70
   64
  3
---------    -    -    ---------
 72
   65
 73
    6
 40
11
 49
6
 49
-1.5
 49
0.25
 49
-1.5
 49
0.25
 49
-1.5
  0
LTYPE
  2
double-dashed_double-dotted
 70
   64
  3
-----   ---------   -   -   ----
 72
   65
 73
    8
 40
18.5
 49
6
 49
-1.5
 49
6
 49
-1.5
 49
0.25
 49
-1.5
 49
0.25
 49
-1.5
  0
LTYPE
  2
dashed_triplicate-dotted
 70
   64
  3
-------    -    -    -    ------
 72
   65
 73
    8
 40
12.75
 49
6
 49
-1.5
 49
0.25
 49
-1.5
 49
0.25
 49
-1.5
 49
0.25
 49
-1.5
  0
LTYPE
  2
double-dashed_triplicate-dotted
 70
   64
  3
-----  ---------  -  -  -  -----
 72
   65
 73
   10
 40
20.25
 49
6
 49
-1.5
 49
6
 49
-1.5
 49
0.25
 49
-1.5
 49
0.25
 49
-1.5
 49
0.25
 49
-1.5
  0
LTYPE
  2
undefined
 70
   64
  3
--------------------------------
 72
   65
 73
    0
 40
0
  0
ENDTAB
  0
TABLE
  2
STYLE
  5
3
100
AcDbSymbolTable
 70
     1
  0
STYLE
  5
10
100
AcDbSymbolTableRecord
100
AcDbTextStyleTableRecord
  2
STANDARD
 70
     0
 40
0.0
 41
1.0
 50
0.0
 71
     0
 42
0.2
  3
txt
  4
bigfont.shx
  0
STYLE
  5
26
100
AcDbSymbolTableRecord
100
AcDbTextStyleTableRecord
  2
TATEGAKI
 70
    68
 40
0.0
 41
1.0
 50
0.0
 71
     0
 42
1.0
  3
txt
  4
bigfont.shx
  0
ENDTAB
  0
TABLE
  2
LAYER
 70
    6
  0
LAYER
  2
_0-1_一般図
 70
   64
 62
    7
  6
CONTINUOUS
  0
LAYER
  2
_0-9_
 70
   64
 62
    7
  6
CONTINUOUS
  0
LAYER
  2
_0-a_
 70
   64
 62
    7
  6
CONTINUOUS
  0
LAYER
  2
_f-1_一般図
 70
   64
 62
    7
  6
CONTINUOUS
  0
LAYER
  2
_f-a_
 70
   64
 62
    7
  6
CONTINUOUS
  0
LAYER
  2
ADD_LINE
 70
   64
 62
    7
  6
CONTINUOUS
  0
ENDTAB
  0
ENDSEC
  0
SECTION
  2
BLOCKS
  0
BLOCK
  2
-000-AT-165
 70
   64
 10
0
 20
0
 30
0
  0
CIRCLE
  8
_a-1_一般図
  6
CONTINUOUS
 62
    7
 10
0
 20
-0.0000000000000284
 40
66
  0
ARC
  8
_a-1_一般図
  6
CONTINUOUS
 62
    7
 10
-0.4164638942630247
 20
-64.638658385093194
 40
0.24
 50
29.815253877500563
 51
89.630851043527855
  0
ARC
  8
_a-1_一般図
  6
CONTINUOUS
 62
    7
 10
0
 20
-64.400000000000034
 40
0.24
 50
209.81525387750054
 51
330.18474612249884
  0
ARC
  8
_a-1_一般図
  6
CONTINUOUS
 62
    7
 10
0.4164638942630247
 20
-64.638658385093194
 40
0.24
 50
90.369148956471477
 51
150.18474612249946
  0
ARC
  8
_a-1_一般図
  6
CONTINUOUS
 62
    7
 10
0.4164638942630318
 20
64.638658385093152
 40
0.24
 50
209.81525387750057
 51
269.63085104352785
  0
ARC
  8
_a-1_一般図
  6
CONTINUOUS
 62
    7
 10
0.0000000000000071
 20
64.399999999999977
 40
0.24
 50
29.815253877500545
 51
150.18474612249884
  0
ARC
  8
_a-1_一般図
  6
CONTINUOUS
 62
    7
 10
-0.4164638942630176
 20
64.638658385093152
 40
0.24
 50
270.36914895647146
 51
330.18474612249946
  0
ARC
  8
_a-1_一般図
  6
CONTINUOUS
 62
    7
 10
0
 20
-0.0000000000000284
 40
64.400000000000006
 50
270.36914895647169
 51
89.63085104352831
  0
ARC
  8
_a-1_一般図
  6
CONTINUOUS
 62
    7
 10
0
 20
-0.0000000000000284
 40
64.400000000000006
 50
90.36914895647169
 51
269.63085104352831
  0
ENDBLK
  0
ENDSEC
  0
SECTION
  2
ENTITIES
  0
LINE
  8
ADD_LINE
  6
DOT
 62
    9
 10
538.67385039458418
 20
50
 11
538.67385039458418
 21
25
  0
LINE
  8
ADD_LINE
  6
DOT
 62
    9
 10
578.67385039458418
 20
50
 11
578.67385039458418
 21
25
  0
LINE
  8
ADD_LINE
  6
DOT
 62
    9
 10
820.51077559187615
 20
50
 11
820.51077559187615
 21
25
  0
LINE
  8
ADD_LINE
  6
DOT
 62
    9
 10
60.54106559187619
 20
50
 11
60.54106559187619
 21
25
  0
TEXT
  8
_f-a_
 62
    7
 10
289.60745799323013
 20
50
 40
6
 41
0.8333333333333333
 50
0
  1
名　　称
  0
TEXT
  8
_f-a_
 62
    7
 10
548.67385039458418
 20
50
 40
6
 41
0.8333333333333333
 50
0
  1
縮　　尺
  0
TEXT
  8
_f-a_
 62
    7
 10
689.59231299323017
 20
50
 40
6
 41
0.8333333333333333
 50
0
  1
品　　番
  0
LINE
  8
ADD_LINE
  6
DOT
 62
    9
 10
60.54106559187619
 20
50
 11
820.51077559187615
 21
50
  0
LINE
  8
ADD_LINE
  6
DOT
 62
    9
 10
60.54106559187619
 20
25
 11
820.51077559187615
 21
25
  0
TEXT
  8
_0-a_
 62
    3
 10
552.17385039458418
 20
32.5
 40
10
 41
0.8
 50
0
  1
1/2
  0
TEXT
  8
_0-a_
 62
    3
 10
187.35745799323013
 20
32.5
 40
10
 41
0.8
 50
0
  1
アルミたてとい新型　丸バンドタイプ(接続部一体成形)
  0
INSERT
  2
-000-AT-165
  8
_0-1_一般図
 10
141.12565399348006
 20
320.00000000000006
 41
1.25
 42
1.25
 50
0
  0
LINE
  8
_0-1_一般図
  6
CENTER1
 62
    4
 10
47.99836273576318
 20
320
 11
230.90699132975553
 21
320
  0
LINE
  8
_0-1_一般図
  6
CENTER1
 62
    4
 10
141.12565399348006
 20
410.15281036172803
 11
141.12565399348006
 21
232.30398096409829
  0
POINT
  8
_0-9_
 62
    4
 10
58.625653993480057
 20
213.5
  0
POINT
  8
_0-9_
 62
    4
 10
223.62565399348006
 20
213.5
  0
LINE
  8
_0-9_
  6
CONTINUOUS
 62
    4
 10
58.625653993480057
 20
211.5
 11
58.625653993480057
 21
318
  0
LINE
  8
_0-9_
  6
CONTINUOUS
 62
    4
 10
223.62565399348006
 20
211.5
 11
223.62565399348006
 21
318
  0
POINT
  8
_0-9_
 62
    4
 10
71.410608988832735
 20
279.75
  0
POINT
  8
_0-9_
 62
    4
 10
210.84069899812738
 20
360.25
  0
POINT
  8
_0-9_
 62
    4
 10
210.84069899812738
 20
360.25
  0
LINE
  8
_0-9_
  6
CONTINUOUS
 62
    4
 10
211.48614886326567
 20
362.93205173014451
 11
211.48614939591494
 21
362.93205080756888
  0
POINT
  8
_0-9_
 62
    4
 10
212.57274980569628
 20
361.25
  0
LINE
  8
_0-9_
  6
CONTINUOUS
 62
    4
 10
210.84069899812738
 20
360.25
 11
212.57274980569628
 21
361.25
  0
TEXT
  8
_0-9_
 62
    3
 10
214.25196575606864
 20
363.37419631935427
 40
10
 41
0.8
 50
30.000000000000313
  1
2
  0
LINE
  8
_0-9_
  6
CONTINUOUS
 62
    4
 10
58.625653993480057
 20
213.5
 11
223.62565399348006
 21
213.5
  0
TEXT
  8
_0-9_
 62
    3
 10
130.12565399348006
 20
214.5
 40
10
 41
0.8
 50
0
  1
φ165
  0
LINE
  8
_0-9_
  6
CONTINUOUS
 62
    4
 10
71.410608988832735
 20
279.75
 11
210.84069899812738
 21
360.25
  0
TEXT
  8
_0-9_
 62
    3
 10
131.09937455185121
 20
315.36602540378442
 40
10
 41
0.8
 50
30.00000000000005
  1
φ161
  0
POINT
  8
_0-9_
 62
    4
 10
293.87434600652028
 20
426.5
  0
LINE
  8
_0-9_
  6
CONTINUOUS
 62
    4
 10
293.87434600652028
 20
428.5
 11
293.87434600652028
 21
404.5
  0
LINE
  8
_0-1_一般図
  6
CONTINUOUS
 62
    7
 10
293.87434600652028
 20
402.5
 11
488.18667685586007
 21
402.5
  0
LINE
  8
_0-1_一般図
  6
CONTINUOUS
 62
    7
 10
293.87434600652028
 20
237.5
 11
488.18667685586007
 21
237.5
  0
LINE
  8
_0-1_一般図
  6
CONTINUOUS
 62
    7
 10
293.87434600652028
 20
237.5
 11
293.87434600652028
 21
402.5
  0
LINE
  8
_0-1_一般図
  6
CONTINUOUS
 62
    7
 10
778.61655086765541
 20
399.34999999999997
 11
778.61655086765552
 21
240.64999999999998
  0
LINE
  8
_0-1_一般図
  6
CONTINUOUS
 62
    7
 10
774.35412734310216
 20
399.98936352868293
 11
778.61655086765541
 21
399.34999999999997
  0
LINE
  8
_0-1_一般図
  6
CONTINUOUS
 62
    7
 10
774.35412734310285
 20
240.01063647131713
 11
778.61655086765552
 21
240.64999999999998
  0
ARC
  8
_0-1_一般図
  6
CONTINUOUS
 62
    7
 10
772.87072281380028
 20
249.90000000000006
 40
10
 50
270
 51
278.53076560994845
  0
LINE
  8
_0-1_一般図
  6
CONTINUOUS
 62
    7
 10
772.87072281380028
 20
239.90000000000003
 11
697.61655086765541
 21
239.90000000000003
  0
ARC
  8
_0-1_一般図
  6
CONTINUOUS
 62
    7
 10
772.87072281379983
 20
390.09999999999991
 40
10
 50
81.46923439005198
 51
90.000000000000057
  0
LINE
  8
_0-1_一般図
  6
CONTINUOUS
 62
    7
 10
772.87072281379983
 20
400.10000000000002
 11
697.61655086765541
 21
400.10000000000002
  0
ARC
  8
_0-1_一般図
  6
CONTINUOUS
 62
    7
 10
691.1173201439467
 20
392.49999999999994
 40
10
 50
49.46419788868301
 51
90
  0
LINE
  8
_0-1_一般図
  6
CONTINUOUS
 62
    7
 10
509.27527608148876
 20
402.5
 11
691.1173201439467
 21
402.5
  0
ARC
  8
_0-1_一般図
  6
CONTINUOUS
 62
    7
 10
691.11732014394659
 20
247.50000000000006
 40
10
 50
270
 51
310.53580211131697
  0
LINE
  8
_0-1_一般図
  6
CONTINUOUS
 62
    7
 10
509.27527608148876
 20
237.5
 11
691.11732014394659
 21
237.5
  0
LINE
  8
_0-1_一般図
  6
CENTER1
 62
    4
 10
284.84553590553799
 20
320
 11
788.6197662526755
 21
320
  0
LINE
  8
_0-1_一般図
  6
CONTINUOUS
 62
    5
 10
697.61655086765541
 20
396.49434379551866
 11
697.61655086765541
 21
243.07974286457292
  0
LINE
  8
_0-1_一般図
  6
CONTINUOUS
 62
    5
 10
773.61655086765541
 20
396.4943437955186
 11
773.61655086765541
 21
243.07974286457286
  0
LINE
  8
_0-9_
  6
CONTINUOUS
 62
    4
 10
293.87434600652028
 20
426.5
 11
697.61655086765541
 21
426.5
  0
POINT
  8
_0-9_
 62
    4
 10
697.61655086765541
 20
426.5
  0
POINT
  8
_0-9_
 62
    4
 10
778.61655086765541
 20
426.5
  0
LINE
  8
_0-9_
  6
CONTINUOUS
 62
    4
 10
697.61655086765541
 20
428.5
 11
697.61655086765541
 21
402.09999999999991
  0
LINE
  8
_0-9_
  6
CONTINUOUS
 62
    4
 10
778.61655086765541
 20
428.5
 11
778.61655086765541
 21
401.34999999999997
  0
LINE
  8
_0-9_
  6
CONTINUOUS
 62
    4
 10
697.61655086765541
 20
426.5
 11
778.61655086765541
 21
426.5
  0
TEXT
  8
_0-9_
 62
    3
 10
733.86655086765541
 20
427.5
 40
10
 41
0.8
 50
0
  1
81
  0
TEXT
  8
_0-9_
 62
    3
 10
462.24544843708787
 20
427.5
 40
10
 41
0.8
 50
0
  1
900・2900・3900
  0
TEXT
  8
_0-a_
 62
    3
 10
686.34231299323017
 20
32.5
 40
10
 41
0.8
 50
0
  1
AT-165
  0
ENDSEC
  0
EOF
