  0
SECTION
  2
HEADER
  9
$ACADVER
  1
AC1009
  9
$INSBASE
 10
0
 20
0
 30
0
  9
$EXTMIN
 10
0
 20
0
  9
$EXTMAX
 10
420
 20
297
  9
$LIMMIN
 10
0
 20
0
  9
$LIMMAX
 10
420
 20
297
  9
$LTSCALE
 40
1
  0
ENDSEC
  0
SECTION
  2
TABLES
  0
TABLE
  2
LTYPE
 70
     9
  0
LTYPE
  2
CONTINUOUS
 70
    64
  3
実線
 72
    65
 73
     0
 40
0.0
  0
LTYPE
  2
DASHED1
 70
    64
  3
--  --  --  --  --  --  --  --  
 72
    65
 73
     2
 40
2.5
 49
1.25
 49
-1.25
  0
LTYPE
  2
DASHED2
 70
    64
  3
----    ----    ----    ----    
 72
    65
 73
     2
 40
5.0
 49
2.5
 49
-2.5
  0
LTYPE
  2
DASHED3
 70
    64
  3
------  ------  ------  ------  
 72
    65
 73
     2
 40
5.0
 49
3.75
 49
-1.25
  0
LTYPE
  2
CENTER1
 70
    64
  3
----- - ----- - ----- - ----- - 
 72
    65
 73
     4
 40
10.0
 49
6.25
 49
-1.25
 49
1.25
 49
-1.25
  0
LTYPE
  2
CENTER2
 70
    64
  3
----------  --  ----------  --  
 72
    65
 73
     4
 40
20.0
 49
12.5
 49
-2.5
 49
2.5
 49
-2.5
  0
LTYPE
  2
PHANTOM1
 70
    64
  3
--- - - --- - - --- - - --- - - 
 72
    65
 73
     6
 40
10.0
 49
3.25
 49
-1.25
 49
1.25
 49
-1.25
 49
1.25
 49
-1.25
  0
LTYPE
  2
PHANTOM2
 70
    64
  3
--------  -  -  --------  -  -  
 72
    65
 73
     6
 40
20.0
 49
10.0
 49
-2.5
 49
1.25
 49
-2.5
 49
1.25
 49
-2.5
  0
LTYPE
  2
DOT
 70
    64
  3
-   -   -   -   -   -   -   -   
 72
    65
 73
     2
 40
2.5
 49
0.625
 49
-1.875
  0
LTYPE
  2
DUMMY
 70
    64
  3
ダミー
 72
    65
 73
     0
 40
0.0
  0
LTYPE
  2
RAND1
 70
    64
  3
ランダム線1
 72
    65
 73
     4
 40
10.0
 49
1.0
 49
-2.0
 49
3.0
 49
-4.0
  0
LTYPE
  2
RAND2
 70
    64
  3
ランダム線2
 72
    65
 73
     4
 40
14.0
 49
2.0
 49
-3.0
 49
4.0
 49
-5.0
  0
LTYPE
  2
RAND3
 70
    64
  3
ランダム線3
 72
    65
 73
     4
 40
18.0
 49
3.0
 49
-4.0
 49
5.0
 49
-6.0
  0
LTYPE
  2
RAND4
 70
    64
  3
ランダム線4
 72
    65
 73
     4
 40
22.0
 49
4.0
 49
-5.0
 49
6.0
 49
-7.0
  0
LTYPE
  2
RAND5
 70
    64
  3
ランダム線5
 72
    65
 73
     4
 40
26.0
 49
5.0
 49
-6.0
 49
7.0
 49
-8.0
  0
LTYPE
  2
LONG1
 70
    64
  3
----------  --  ----------  --  
 72
    65
 73
     4
 40
40.0
 49
32.5
 49
-2.5
 49
2.5
 49
-2.5
  0
LTYPE
  2
LONG2
 70
    64
  3
--------  -  -  --------  -  -  
 72
    65
 73
     6
 40
40.0
 49
30.0
 49
-2.5
 49
1.25
 49
-2.5
 49
1.25
 49
-2.5
  0
LTYPE
  2
LONG3
 70
    64
  3
+++++++++++++++..+++++++++++++++
 72
    65
 73
     2
 40
40.0
 49
37.5
 49
-2.5
  0
LTYPE
  2
LONG4
 70
    64
  3
+++++++++++++++..+++++++++++++++
 72
    65
 73
     2
 40
80.0
 49
75.0
 49
-5.0
  0
LTYPE
  2
LONG5
 70
    64
  3
----------  --  ----------  --  
 72
    65
 73
     4
 40
60.0
 49
37.5
 49
-7.5
 49
7.5
 49
-7.5
  0
LTYPE
  2
dashed
 70
   64
  3
-------   -------------   ------
 72
   65
 73
    2
 40
7.5
 49
6
 49
-1.5
  0
LTYPE
  2
dashed_spaced
 70
   64
  3
----        --------        ----
 72
   65
 73
    2
 40
12
 49
6
 49
-6
  0
LTYPE
  2
long_dashed_dotted
 70
   64
  3
------------- --- --------------
 72
   65
 73
    4
 40
15.25
 49
12
 49
-1.5
 49
0.25
 49
-1.5
  0
LTYPE
  2
long_dashed_double-dotted
 70
   64
  3
----------- --- --- ------------
 72
   65
 73
    6
 40
17
 49
12
 49
-1.5
 49
0.25
 49
-1.5
 49
0.25
 49
-1.5
  0
LTYPE
  2
long_dashed_triplicate-dotted
 70
   64
  3
--------- --- --- --- ----------
 72
   65
 73
    8
 40
18.75
 49
12
 49
-1.5
 49
0.25
 49
-1.5
 49
0.25
 49
-1.5
 49
0.25
 49
-1.5
  0
LTYPE
  2
dotted
 70
   64
  3
   -       -       -       -    
 72
   65
 73
    2
 40
1.75
 49
0.25
 49
-1.5
  0
LTYPE
  2
chain
 70
   64
  3
-------------- -- --------------
 72
   65
 73
    4
 40
18.5
 49
12
 49
-1.5
 49
3.5
 49
-1.5
  0
LTYPE
  2
chain_double_dash
 70
   64
  3
------------ -- -- -------------
 72
   65
 73
    6
 40
23.5
 49
12
 49
-1.5
 49
3.5
 49
-1.5
 49
3.5
 49
-1.5
  0
LTYPE
  2
dashed_dotted
 70
   64
  3
-----------     -     ----------
 72
   65
 73
    4
 40
9.25
 49
6
 49
-1.5
 49
0.25
 49
-1.5
  0
LTYPE
  2
double-dashed_dotted
 70
   64
  3
------   -----------   -   -----
 72
   65
 73
    6
 40
16.75
 49
6
 49
-1.5
 49
6
 49
-1.5
 49
0.25
 49
-1.5
  0
LTYPE
  2
dashed_double-dotted
 70
   64
  3
---------    -    -    ---------
 72
   65
 73
    6
 40
11
 49
6
 49
-1.5
 49
0.25
 49
-1.5
 49
0.25
 49
-1.5
  0
LTYPE
  2
double-dashed_double-dotted
 70
   64
  3
-----   ---------   -   -   ----
 72
   65
 73
    8
 40
18.5
 49
6
 49
-1.5
 49
6
 49
-1.5
 49
0.25
 49
-1.5
 49
0.25
 49
-1.5
  0
LTYPE
  2
dashed_triplicate-dotted
 70
   64
  3
-------    -    -    -    ------
 72
   65
 73
    8
 40
12.75
 49
6
 49
-1.5
 49
0.25
 49
-1.5
 49
0.25
 49
-1.5
 49
0.25
 49
-1.5
  0
LTYPE
  2
double-dashed_triplicate-dotted
 70
   64
  3
-----  ---------  -  -  -  -----
 72
   65
 73
   10
 40
20.25
 49
6
 49
-1.5
 49
6
 49
-1.5
 49
0.25
 49
-1.5
 49
0.25
 49
-1.5
 49
0.25
 49
-1.5
  0
LTYPE
  2
undefined
 70
   64
  3
--------------------------------
 72
   65
 73
    0
 40
0
  0
ENDTAB
  0
TABLE
  2
STYLE
  5
3
100
AcDbSymbolTable
 70
     1
  0
STYLE
  5
10
100
AcDbSymbolTableRecord
100
AcDbTextStyleTableRecord
  2
STANDARD
 70
     0
 40
0.0
 41
1.0
 50
0.0
 71
     0
 42
0.2
  3
txt
  4
bigfont.shx
  0
STYLE
  5
26
100
AcDbSymbolTableRecord
100
AcDbTextStyleTableRecord
  2
TATEGAKI
 70
    68
 40
0.0
 41
1.0
 50
0.0
 71
     0
 42
1.0
  3
txt
  4
bigfont.shx
  0
ENDTAB
  0
TABLE
  2
LAYER
 70
    6
  0
LAYER
  2
_0-1_一般図
 70
   64
 62
    7
  6
CONTINUOUS
  0
LAYER
  2
_0-9_
 70
   64
 62
    7
  6
CONTINUOUS
  0
LAYER
  2
_0-a_
 70
   64
 62
    7
  6
CONTINUOUS
  0
LAYER
  2
_f-1_一般図
 70
   64
 62
    7
  6
CONTINUOUS
  0
LAYER
  2
_f-a_
 70
   64
 62
    7
  6
CONTINUOUS
  0
LAYER
  2
ADD_LINE
 70
   64
 62
    7
  6
CONTINUOUS
  0
ENDTAB
  0
ENDSEC
  0
SECTION
  2
BLOCKS
  0
BLOCK
  2
-000-ATN-60
 70
   64
 10
0
 20
0
 30
0
  0
CIRCLE
  8
_0-1_一般図
  6
CONTINUOUS
 62
    7
 10
-0.0000000000001563
 20
23.447425947109419
 40
28.699999999999999
  0
LINE
  8
_0-1_一般図
  6
CONTINUOUS
 62
    7
 10
-16.065712826617258
 20
-5.5265483665051818
 11
-16.699999999999946
 21
-5.5265483665051818
  0
LINE
  8
_0-1_一般図
  6
CONTINUOUS
 62
    7
 10
16.065712826617286
 20
-5.5265483665051889
 11
16.700000000000031
 21
-5.5265483665051889
  0
ARC
  8
_0-1_一般図
  6
CONTINUOUS
 62
    7
 10
-15.58480575669428
 20
-5.7046039194475213
 40
1.4218416325267724
 50
186.24039513560112
 51
11.274861586275563
  0
ARC
  8
_0-1_一般図
  6
CONTINUOUS
 62
    7
 10
-16.699999999999946
 20
-5.8265483665051931
 40
0.3
 50
90
 51
186.24039513560106
  0
ARC
  8
_0-1_一般図
  6
CONTINUOUS
 62
    7
 10
-16.065712826617258
 20
-5.2265483665051704
 40
0.3
 50
270
 51
11.27486158627562
  0
ARC
  8
_0-1_一般図
  6
CONTINUOUS
 62
    7
 10
15.584805756694337
 20
-5.7046039194475284
 40
1.4218416325267724
 50
168.72513841372435
 51
353.75960486439885
  0
ARC
  8
_0-1_一般図
  6
CONTINUOUS
 62
    7
 10
16.700000000000031
 20
-5.8265483665052002
 40
0.3
 50
353.75960486439891
 51
90
  0
ARC
  8
_0-1_一般図
  6
CONTINUOUS
 62
    7
 10
16.065712826617286
 20
-5.2265483665051775
 40
0.3
 50
168.72513841372435
 51
270
  0
LINE
  8
_0-1_一般図
  6
CONTINUOUS
 62
    7
 10
15.771502666070504
 20
-5.1678936017282595
 11
16.454022606921072
 21
-1.7443984749867312
  0
ARC
  8
_0-1_一般図
  6
CONTINUOUS
 62
    7
 10
16.748232767467854
 20
-1.8030532397636776
 40
0.3
 50
123.55567049683009
 51
168.72513841372324
  0
LINE
  8
_0-1_一般図
  6
CONTINUOUS
 62
    7
 10
14.611311371087467
 20
-3.3153598263172981
 11
14.190404906768364
 21
-5.4266112977611343
  0
ARC
  8
_0-1_一般図
  6
CONTINUOUS
 62
    7
 10
14.317101210540685
 20
-3.2567050615403517
 40
0.3
 50
348.72513841372324
 51
118.19745324441436
  0
LINE
  8
_0-1_一般図
  6
CONTINUOUS
 62
    7
 10
-14.611311371087382
 20
-3.3153598263174899
 11
-14.190404906768308
 21
-5.4266112977611272
  0
ARC
  8
_0-1_一般図
  6
CONTINUOUS
 62
    7
 10
-0.0000000000001563
 20
23.447425947109419
 40
30
 50
241.80254675558714
 51
298.19745324441374
  0
ARC
  8
_0-1_一般図
  6
CONTINUOUS
 62
    7
 10
-14.317101210540599
 20
-3.2567050615405435
 40
0.3
 50
61.802546755585638
 51
191.2748615862767
  0
LINE
  8
_0-1_一般図
  6
CONTINUOUS
 62
    7
 10
-15.771502666070447
 20
-5.1678936017282524
 11
-16.454022606920987
 21
-1.7443984749869514
  0
ARC
  8
_0-1_一般図
  6
CONTINUOUS
 62
    7
 10
-0.0000000000001563
 20
23.447425947109419
 40
30
 50
303.55567049683032
 51
236.44432950317056
  0
ARC
  8
_0-1_一般図
  6
CONTINUOUS
 62
    7
 10
-16.748232767467769
 20
-1.8030532397638979
 40
0.3
 50
11.27486158627673
 51
56.444329503169882
  0
ENDBLK
  0
ENDSEC
  0
SECTION
  2
ENTITIES
  0
LINE
  8
ADD_LINE
  6
DOT
 62
    9
 10
269.33692519729209
 20
25
 11
269.33692519729209
 21
12.5
  0
LINE
  8
ADD_LINE
  6
DOT
 62
    9
 10
289.33692519729209
 20
25
 11
289.33692519729209
 21
12.5
  0
LINE
  8
ADD_LINE
  6
DOT
 62
    9
 10
410.25538779593808
 20
25
 11
410.25538779593808
 21
12.5
  0
TEXT
  8
_0-a_
 62
    3
 10
276.08692519729209
 20
16.25
 40
5
 41
0.8
 50
0
  1
1/1
  0
LINE
  8
ADD_LINE
  6
DOT
 62
    9
 10
30.270532753964858
 20
25
 11
410.25538779593808
 21
25
  0
LINE
  8
ADD_LINE
  6
DOT
 62
    9
 10
30.270532753964858
 20
12.5
 11
410.25538779593808
 21
12.5
  0
LINE
  8
ADD_LINE
  6
DOT
 62
    9
 10
30.270532795938095
 20
25
 11
30.270532795938095
 21
12.5
  0
TEXT
  8
_f-a_
 62
    7
 10
274.33692519729209
 20
25
 40
3
 41
0.8333333333333333
 50
0
  1
縮　　尺
  0
TEXT
  8
_f-a_
 62
    7
 10
144.80372899661506
 20
25
 40
3
 41
0.8333333333333333
 50
0
  1
名　　称
  0
TEXT
  8
_f-a_
 62
    7
 10
344.79615649661508
 20
25
 40
3
 41
0.8333333333333333
 50
0
  1
品　　番
  0
POINT
  8
_0-9_
 62
    4
 10
46.639517311567573
 20
118.00000000000009
  0
POINT
  8
_0-9_
 62
    4
 10
106.63951731156737
 20
118.00000000000009
  0
LINE
  8
_0-9_
  6
CONTINUOUS
 62
    4
 10
46.639517311567573
 20
117.00000000000009
 11
46.639517311567573
 21
159
  0
LINE
  8
_0-9_
  6
CONTINUOUS
 62
    4
 10
106.63951731156737
 20
117.00000000000009
 11
106.63951731156737
 21
159
  0
POINT
  8
_0-9_
 62
    4
 10
99.256837423791723
 20
177.66767617323859
  0
POINT
  8
_0-9_
 62
    4
 10
100.28131581002732
 20
178.46795455671071
  0
LINE
  8
_0-9_
  6
CONTINUOUS
 62
    4
 10
98.641238932258233
 20
178.45573613112359
 11
98.641239834438281
 21
178.45573497619552
  0
LINE
  8
_0-9_
  6
CONTINUOUS
 62
    4
 10
99.665717318493833
 20
179.25601451459568
 11
99.665718746791796
 21
179.25601268615645
  0
LINE
  8
_0-9_
  6
CONTINUOUS
 62
    4
 10
99.256837423791723
 20
177.66767617323859
 11
100.28131581002732
 21
178.46795455671071
  0
TEXT
  8
_0-9_
 62
    3
 10
101.45440981217799
 20
180.01879454791009
 40
5
 41
0.8
 50
37.995420629999941
  1
1.3
  0
LINE
  8
_0-1_一般図
  6
CONTINUOUS
 62
    7
 10
158.36048268419694
 20
130
 11
243.82310943215754
 21
130
  0
POINT
  8
_0-9_
 62
    4
 10
54.022197461780991
 20
142.33232402514955
  0
POINT
  8
_0-9_
 62
    4
 10
99.256837423791723
 20
177.66767617323859
  0
LINE
  8
_0-9_
  6
CONTINUOUS
 62
    4
 10
53.406598970247501
 20
143.12038398303451
 11
53.406599712978306
 21
143.12038303222582
  0
LINE
  8
_0-9_
  6
CONTINUOUS
 62
    4
 10
54.022197461780962
 20
142.33232402514957
 11
99.256837423791751
 21
177.66767617323856
  0
TEXT
  8
_0-9_
 62
    3
 10
71.110820975786368
 20
156.31569007219406
 40
5
 41
0.8
 50
37.995420632412916
  1
φ57.4
  0
LINE
  8
_0-9_
  6
CONTINUOUS
 62
    4
 10
46.639517311567573
 20
118.00000000000009
 11
106.63951731156737
 21
118.00000000000009
  0
TEXT
  8
_0-9_
 62
    3
 10
72.264517311567488
 20
118.50000000000009
 40
5
 41
0.8
 50
0
  1
φ60
  0
INSERT
  2
-000-ATN-60
  8
_0-1_一般図
 10
76.639517311567317
 20
183.44742594710942
 41
1
 42
1
 50
180
  0
LINE
  8
_0-1_一般図
  6
CENTER1
 62
    4
 10
76.639517311567488
 20
195.52262642197468
 11
76.639517311567488
 21
124.83259924682929
  0
POINT
  8
_0-9_
 62
    4
 10
158.36048268419694
 20
202.57387149663518
  0
LINE
  8
_0-1_一般図
  6
CONTINUOUS
 62
    7
 10
158.36048268419694
 20
190.57387149908371
 11
158.36048268419694
 21
130
  0
LINE
  8
_0-9_
  6
CONTINUOUS
 62
    4
 10
158.36048268419694
 20
203.57387149663518
 11
158.36048268419694
 21
191.57387149908371
  0
LINE
  8
_0-1_一般図
  6
CONTINUOUS
 62
    7
 10
158.36048268419694
 20
190.57387149908371
 11
243.82310943215754
 21
190.57387149908371
  0
LINE
  8
_0-1_一般図
  6
CONTINUOUS
 62
    7
 10
158.36048268419694
 20
188.9739743136146
 11
243.82310943215754
 21
188.9739743136146
  0
LINE
  8
_0-1_一般図
  6
CONTINUOUS
 62
    5
 10
158.36048268419694
 20
185.06909111861461
 11
243.82310943215754
 21
185.06909111861461
  0
LINE
  8
_0-1_一般図
  6
CONTINUOUS
 62
    7
 10
373.61465463034131
 20
188.5
 11
338.36048268419694
 21
188.5
  0
ARC
  8
_0-1_一般図
  6
CONTINUOUS
 62
    7
 10
373.61465463034131
 20
178.5
 40
10
 50
81.469234390051867
 51
90
  0
LINE
  8
_0-1_一般図
  6
CONTINUOUS
 62
    7
 10
373.61465463034131
 20
131.50000000000003
 11
338.36048268419688
 21
131.50000000000003
  0
ARC
  8
_0-1_一般図
  6
CONTINUOUS
 62
    7
 10
373.61465463034125
 20
141.49999999999997
 40
10
 50
270
 51
278.53076560994816
  0
LINE
  8
_0-1_一般図
  6
CONTINUOUS
 62
    7
 10
375.09805915964375
 20
188.38936352868296
 11
379.36048268419688
 21
187.75000000000003
  0
LINE
  8
_0-1_一般図
  6
CONTINUOUS
 62
    7
 10
379.36048268419694
 20
187.75
 11
379.36048268419694
 21
132.25000000000006
  0
LINE
  8
_0-1_一般図
  6
CONTINUOUS
 62
    7
 10
375.09805915964375
 20
131.61063647131704
 11
379.360482684197
 21
132.25000000000003
  0
LINE
  8
_0-1_一般図
  6
CONTINUOUS
 62
    5
 10
338.36048268419694
 20
187.69488091225247
 11
338.36048268419694
 21
132.14647031868304
  0
LINE
  8
_0-1_一般図
  6
CONTINUOUS
 62
    5
 10
374.36048268419688
 20
187.42193057734295
 11
374.36048268419688
 21
132.40363082403064
  0
ARC
  8
_0-1_一般図
  6
CONTINUOUS
 62
    7
 10
333.09265580777048
 20
139.99999999999994
 40
10
 50
270
 51
301.7883306170516
  0
LINE
  8
_0-1_一般図
  6
CONTINUOUS
 62
    7
 10
252.73888227169789
 20
130
 11
333.09265580777048
 21
130
  0
LINE
  8
_0-1_一般図
  6
CONTINUOUS
 62
    7
 10
252.73888227169789
 20
190.57387149908371
 11
329.36048268419694
 21
190.57387149908371
  0
LINE
  8
_0-1_一般図
  6
CONTINUOUS
 62
    7
 10
252.73888227169789
 20
188.9739743136146
 11
329.36048268419694
 21
188.9739743136146
  0
ARC
  8
_0-1_一般図
  6
CONTINUOUS
 62
    7
 10
333.09265580777043
 20
180
 40
10
 50
58.211669382948379
 51
90
  0
LINE
  8
_0-1_一般図
  6
CONTINUOUS
 62
    7
 10
329.36048268419694
 20
190
 11
333.09265580777043
 21
190
  0
LINE
  8
_0-1_一般図
  6
CONTINUOUS
 62
    7
 10
329.36048268419694
 20
190.57387149908371
 11
329.36048268419694
 21
185.06909111861461
  0
LINE
  8
_0-1_一般図
  6
CONTINUOUS
 62
    5
 10
252.73888227169789
 20
185.06909111861461
 11
329.36048268419694
 21
185.06909111861461
  0
LINE
  8
_0-9_
  6
CONTINUOUS
 62
    4
 10
158.36048268419694
 20
202.57387149663518
 11
338.36048268419694
 21
202.57387149663518
  0
POINT
  8
_0-9_
 62
    4
 10
338.36048268419677
 20
202.57387149663518
  0
POINT
  8
_0-9_
 62
    4
 10
379.36048268419694
 20
202.57387149663518
  0
LINE
  8
_0-9_
  6
CONTINUOUS
 62
    4
 10
338.36048268419677
 20
203.57387149663518
 11
338.36048268419677
 21
189.5
  0
LINE
  8
_0-9_
  6
CONTINUOUS
 62
    4
 10
379.36048268419694
 20
203.57387149663518
 11
379.36048268419694
 21
188.75
  0
LINE
  8
_0-9_
  6
CONTINUOUS
 62
    4
 10
338.36048268419677
 20
202.57387149663518
 11
379.36048268419694
 21
202.57387149663518
  0
TEXT
  8
_0-9_
 62
    3
 10
356.73548268419688
 20
203.07387149663518
 40
5
 41
0.8
 50
0
  1
41
  0
POINT
  8
_0-9_
 62
    4
 10
59.639517311567261
 20
202.57387149663518
  0
POINT
  8
_0-9_
 62
    4
 10
93.639517311567261
 20
202.57387149663518
  0
LINE
  8
_0-9_
  6
CONTINUOUS
 62
    4
 10
59.639517311567261
 20
203.57387149663518
 11
59.639517311567261
 21
190.27397431361462
  0
LINE
  8
_0-9_
  6
CONTINUOUS
 62
    4
 10
93.639517311567261
 20
203.57387149663518
 11
93.639517311567261
 21
190.27397431361462
  0
LINE
  8
_0-9_
  6
CONTINUOUS
 62
    4
 10
59.639517311567261
 20
202.57387149663518
 11
93.639517311567261
 21
202.57387149663518
  0
TEXT
  8
_0-9_
 62
    3
 10
74.514517311567261
 20
203.07387149663518
 40
5
 41
0.8
 50
0
  1
34
  0
POINT
  8
_0-9_
 62
    4
 10
118.63951731156746
 20
130
  0
POINT
  8
_0-9_
 62
    4
 10
118.63951731156746
 20
190.57387149908371
  0
LINE
  8
_0-9_
  6
CONTINUOUS
 62
    4
 10
119.63951731156746
 20
130
 11
77.639517311567488
 21
130
  0
LINE
  8
_0-9_
  6
CONTINUOUS
 62
    4
 10
119.63951731156746
 20
190.57387149908371
 11
93.224323068261597
 21
190.57387149908371
  0
LINE
  8
_0-9_
  6
CONTINUOUS
 62
    4
 10
118.63951731156746
 20
130
 11
118.63951731156746
 21
190.57387149908371
  0
TEXT
  8
_0-9_
 62
    3
 10
118.13951731156746
 20
155.91193574954187
 40
5
 41
0.8
 50
90
  1
60.6
  0
LINE
  8
_0-1_一般図
  6
CENTER1
 62
    4
 10
41.841701200641609
 20
160
 11
110.79146001640316
 21
160
  0
TEXT
  8
_0-9_
 62
    3
 10
231.61048268419694
 20
203.07387149663518
 40
5
 41
0.8
 50
0
  1
900・2900・3900
  0
TEXT
  8
_0-a_
 62
    3
 10
343.17115649661508
 20
16.25
 40
5
 41
0.8
 50
0
  1
ATN-60
  0
TEXT
  8
_0-a_
 62
    3
 10
89.178728975628474
 20
16.25
 40
5
 41
0.8
 50
0
  1
アルミたてとい新型　丸バンドレスタイプ(接続部一体成形)
  0
LINE
  8
_0-1_一般図
  6
CENTER1
 62
    4
 10
152.18619198792805
 20
160
 11
384.6537313432836
 21
160
  0
ENDSEC
  0
EOF
