  0
SECTION
  2
HEADER
  9
$ACADVER
  1
AC1009
  9
$INSBASE
 10
0
 20
0
 30
0
  9
$EXTMIN
 10
0
 20
0
  9
$EXTMAX
 10
420
 20
297
  9
$LIMMIN
 10
0
 20
0
  9
$LIMMAX
 10
420
 20
297
  9
$LTSCALE
 40
1
  0
ENDSEC
  0
SECTION
  2
TABLES
  0
TABLE
  2
LTYPE
 70
     9
  0
LTYPE
  2
CONTINUOUS
 70
    64
  3
実線
 72
    65
 73
     0
 40
0.0
  0
LTYPE
  2
DASHED1
 70
    64
  3
--  --  --  --  --  --  --  --  
 72
    65
 73
     2
 40
2.5
 49
1.25
 49
-1.25
  0
LTYPE
  2
DASHED2
 70
    64
  3
----    ----    ----    ----    
 72
    65
 73
     2
 40
5.0
 49
2.5
 49
-2.5
  0
LTYPE
  2
DASHED3
 70
    64
  3
------  ------  ------  ------  
 72
    65
 73
     2
 40
5.0
 49
3.75
 49
-1.25
  0
LTYPE
  2
CENTER1
 70
    64
  3
----- - ----- - ----- - ----- - 
 72
    65
 73
     4
 40
10.0
 49
6.25
 49
-1.25
 49
1.25
 49
-1.25
  0
LTYPE
  2
CENTER2
 70
    64
  3
----------  --  ----------  --  
 72
    65
 73
     4
 40
20.0
 49
12.5
 49
-2.5
 49
2.5
 49
-2.5
  0
LTYPE
  2
PHANTOM1
 70
    64
  3
--- - - --- - - --- - - --- - - 
 72
    65
 73
     6
 40
10.0
 49
3.25
 49
-1.25
 49
1.25
 49
-1.25
 49
1.25
 49
-1.25
  0
LTYPE
  2
PHANTOM2
 70
    64
  3
--------  -  -  --------  -  -  
 72
    65
 73
     6
 40
20.0
 49
10.0
 49
-2.5
 49
1.25
 49
-2.5
 49
1.25
 49
-2.5
  0
LTYPE
  2
DOT
 70
    64
  3
-   -   -   -   -   -   -   -   
 72
    65
 73
     2
 40
2.5
 49
0.625
 49
-1.875
  0
LTYPE
  2
DUMMY
 70
    64
  3
ダミー
 72
    65
 73
     0
 40
0.0
  0
LTYPE
  2
RAND1
 70
    64
  3
ランダム線1
 72
    65
 73
     4
 40
10.0
 49
1.0
 49
-2.0
 49
3.0
 49
-4.0
  0
LTYPE
  2
RAND2
 70
    64
  3
ランダム線2
 72
    65
 73
     4
 40
14.0
 49
2.0
 49
-3.0
 49
4.0
 49
-5.0
  0
LTYPE
  2
RAND3
 70
    64
  3
ランダム線3
 72
    65
 73
     4
 40
18.0
 49
3.0
 49
-4.0
 49
5.0
 49
-6.0
  0
LTYPE
  2
RAND4
 70
    64
  3
ランダム線4
 72
    65
 73
     4
 40
22.0
 49
4.0
 49
-5.0
 49
6.0
 49
-7.0
  0
LTYPE
  2
RAND5
 70
    64
  3
ランダム線5
 72
    65
 73
     4
 40
26.0
 49
5.0
 49
-6.0
 49
7.0
 49
-8.0
  0
LTYPE
  2
LONG1
 70
    64
  3
----------  --  ----------  --  
 72
    65
 73
     4
 40
40.0
 49
32.5
 49
-2.5
 49
2.5
 49
-2.5
  0
LTYPE
  2
LONG2
 70
    64
  3
--------  -  -  --------  -  -  
 72
    65
 73
     6
 40
40.0
 49
30.0
 49
-2.5
 49
1.25
 49
-2.5
 49
1.25
 49
-2.5
  0
LTYPE
  2
LONG3
 70
    64
  3
+++++++++++++++..+++++++++++++++
 72
    65
 73
     2
 40
40.0
 49
37.5
 49
-2.5
  0
LTYPE
  2
LONG4
 70
    64
  3
+++++++++++++++..+++++++++++++++
 72
    65
 73
     2
 40
80.0
 49
75.0
 49
-5.0
  0
LTYPE
  2
LONG5
 70
    64
  3
----------  --  ----------  --  
 72
    65
 73
     4
 40
60.0
 49
37.5
 49
-7.5
 49
7.5
 49
-7.5
  0
LTYPE
  2
dashed
 70
   64
  3
-------   -------------   ------
 72
   65
 73
    2
 40
7.5
 49
6
 49
-1.5
  0
LTYPE
  2
dashed_spaced
 70
   64
  3
----        --------        ----
 72
   65
 73
    2
 40
12
 49
6
 49
-6
  0
LTYPE
  2
long_dashed_dotted
 70
   64
  3
------------- --- --------------
 72
   65
 73
    4
 40
15.25
 49
12
 49
-1.5
 49
0.25
 49
-1.5
  0
LTYPE
  2
long_dashed_double-dotted
 70
   64
  3
----------- --- --- ------------
 72
   65
 73
    6
 40
17
 49
12
 49
-1.5
 49
0.25
 49
-1.5
 49
0.25
 49
-1.5
  0
LTYPE
  2
long_dashed_triplicate-dotted
 70
   64
  3
--------- --- --- --- ----------
 72
   65
 73
    8
 40
18.75
 49
12
 49
-1.5
 49
0.25
 49
-1.5
 49
0.25
 49
-1.5
 49
0.25
 49
-1.5
  0
LTYPE
  2
dotted
 70
   64
  3
   -       -       -       -    
 72
   65
 73
    2
 40
1.75
 49
0.25
 49
-1.5
  0
LTYPE
  2
chain
 70
   64
  3
-------------- -- --------------
 72
   65
 73
    4
 40
18.5
 49
12
 49
-1.5
 49
3.5
 49
-1.5
  0
LTYPE
  2
chain_double_dash
 70
   64
  3
------------ -- -- -------------
 72
   65
 73
    6
 40
23.5
 49
12
 49
-1.5
 49
3.5
 49
-1.5
 49
3.5
 49
-1.5
  0
LTYPE
  2
dashed_dotted
 70
   64
  3
-----------     -     ----------
 72
   65
 73
    4
 40
9.25
 49
6
 49
-1.5
 49
0.25
 49
-1.5
  0
LTYPE
  2
double-dashed_dotted
 70
   64
  3
------   -----------   -   -----
 72
   65
 73
    6
 40
16.75
 49
6
 49
-1.5
 49
6
 49
-1.5
 49
0.25
 49
-1.5
  0
LTYPE
  2
dashed_double-dotted
 70
   64
  3
---------    -    -    ---------
 72
   65
 73
    6
 40
11
 49
6
 49
-1.5
 49
0.25
 49
-1.5
 49
0.25
 49
-1.5
  0
LTYPE
  2
double-dashed_double-dotted
 70
   64
  3
-----   ---------   -   -   ----
 72
   65
 73
    8
 40
18.5
 49
6
 49
-1.5
 49
6
 49
-1.5
 49
0.25
 49
-1.5
 49
0.25
 49
-1.5
  0
LTYPE
  2
dashed_triplicate-dotted
 70
   64
  3
-------    -    -    -    ------
 72
   65
 73
    8
 40
12.75
 49
6
 49
-1.5
 49
0.25
 49
-1.5
 49
0.25
 49
-1.5
 49
0.25
 49
-1.5
  0
LTYPE
  2
double-dashed_triplicate-dotted
 70
   64
  3
-----  ---------  -  -  -  -----
 72
   65
 73
   10
 40
20.25
 49
6
 49
-1.5
 49
6
 49
-1.5
 49
0.25
 49
-1.5
 49
0.25
 49
-1.5
 49
0.25
 49
-1.5
  0
LTYPE
  2
undefined
 70
   64
  3
--------------------------------
 72
   65
 73
    0
 40
0
  0
ENDTAB
  0
TABLE
  2
STYLE
  5
3
100
AcDbSymbolTable
 70
     1
  0
STYLE
  5
10
100
AcDbSymbolTableRecord
100
AcDbTextStyleTableRecord
  2
STANDARD
 70
     0
 40
0.0
 41
1.0
 50
0.0
 71
     0
 42
0.2
  3
txt
  4
bigfont.shx
  0
STYLE
  5
26
100
AcDbSymbolTableRecord
100
AcDbTextStyleTableRecord
  2
TATEGAKI
 70
    68
 40
0.0
 41
1.0
 50
0.0
 71
     0
 42
1.0
  3
txt
  4
bigfont.shx
  0
ENDTAB
  0
TABLE
  2
LAYER
 70
    6
  0
LAYER
  2
_0-1_一般図
 70
   64
 62
    7
  6
CONTINUOUS
  0
LAYER
  2
_0-9_
 70
   64
 62
    7
  6
CONTINUOUS
  0
LAYER
  2
_0-a_
 70
   64
 62
    7
  6
CONTINUOUS
  0
LAYER
  2
_f-1_一般図
 70
   64
 62
    7
  6
CONTINUOUS
  0
LAYER
  2
_f-a_
 70
   64
 62
    7
  6
CONTINUOUS
  0
LAYER
  2
ADD_LINE
 70
   64
 62
    7
  6
CONTINUOUS
  0
ENDTAB
  0
ENDSEC
  0
SECTION
  2
BLOCKS
  0
BLOCK
  2
-000-ATN-89
 70
   64
 10
0
 20
0
 30
0
  0
CIRCLE
  8
_a-0_
  6
CONTINUOUS
 62
    7
 10
-0.0000000000000568
 20
18.635470312794617
 40
21.600000000000001
  0
LINE
  8
_a-0_
  6
CONTINUOUS
 62
    7
 10
-8.032856413308636
 20
-4.1918783637361869
 11
-8.3499999999999801
 21
-4.1918783637361869
  0
LINE
  8
_a-0_
  6
CONTINUOUS
 62
    7
 10
8.032856413308636
 20
-4.1918783637361869
 11
8.3500000000000085
 21
-4.1918783637361869
  0
ARC
  8
_a-0_
  6
CONTINUOUS
 62
    7
 10
-7.7924028783471471
 20
-4.2809061402073567
 40
0.7109208162633862
 50
186.24039513560112
 51
11.274861586275563
  0
ARC
  8
_a-0_
  6
CONTINUOUS
 62
    7
 10
-8.3499999999999801
 20
-4.3418783637361926
 40
0.15
 50
90
 51
186.24039513560106
  0
ARC
  8
_a-0_
  6
CONTINUOUS
 62
    7
 10
-8.032856413308636
 20
-4.0418783637361813
 40
0.15
 50
270
 51
11.27486158627562
  0
ARC
  8
_a-0_
  6
CONTINUOUS
 62
    7
 10
7.7924028783471613
 20
-4.2809061402073567
 40
0.7109208162633862
 50
168.72513841372435
 51
353.75960486439885
  0
ARC
  8
_a-0_
  6
CONTINUOUS
 62
    7
 10
8.3500000000000085
 20
-4.3418783637361926
 40
0.15
 50
353.75960486439891
 51
90
  0
ARC
  8
_a-0_
  6
CONTINUOUS
 62
    7
 10
8.032856413308636
 20
-4.0418783637361813
 40
0.15
 50
168.72513841372435
 51
270
  0
LINE
  8
_a-0_
  6
CONTINUOUS
 62
    7
 10
7.8857513330352447
 20
-4.0125509813477223
 11
8.2681657581370445
 21
-2.0943741745278501
  0
ARC
  8
_a-0_
  6
CONTINUOUS
 62
    7
 10
8.4152708384104216
 20
-2.1237015569163233
 40
0.15
 50
112.06645441460915
 51
168.72513841372324
  0
LINE
  8
_a-0_
  6
CONTINUOUS
 62
    7
 10
7.4055439145884066
 20
-2.5852483804187969
 11
7.0952024533841751
 21
-4.1419098293641596
  0
ARC
  8
_a-0_
  6
CONTINUOUS
 62
    7
 10
7.2584388343150152
 20
-2.5559209980303237
 40
0.15
 50
348.72513841372324
 51
108.90726926817135
  0
LINE
  8
_a-0_
  6
CONTINUOUS
 62
    7
 10
-7.4055439145883923
 20
-2.5852483804188395
 11
-7.0952024533841609
 21
-4.1419098293641596
  0
ARC
  8
_a-0_
  6
CONTINUOUS
 62
    7
 10
-0.0000000000000568
 20
18.635470312794617
 40
22.25
 50
251.09273073182865
 51
288.90726926817172
  0
ARC
  8
_a-0_
  6
CONTINUOUS
 62
    7
 10
-7.258438834315001
 20
-2.5559209980303663
 40
0.15
 50
71.092730731828624
 51
191.27486158627687
  0
LINE
  8
_a-0_
  6
CONTINUOUS
 62
    7
 10
-7.8857513330352305
 20
-4.0125509813477223
 11
-8.268165758137016
 21
-2.094374174527907
  0
ARC
  8
_a-0_
  6
CONTINUOUS
 62
    7
 10
-0.0000000000000568
 20
18.635470312794617
 40
22.25
 50
292.06645441460927
 51
247.93354558539116
  0
ARC
  8
_a-0_
  6
CONTINUOUS
 62
    7
 10
-8.4152708384104074
 20
-2.1237015569163802
 40
0.15
 50
11.274861586276868
 51
67.933545585390846
  0
ENDBLK
  0
ENDSEC
  0
SECTION
  2
ENTITIES
  0
LINE
  8
ADD_LINE
  6
DOT
 62
    9
 10
269.33692519729209
 20
25
 11
269.33692519729209
 21
12.5
  0
LINE
  8
ADD_LINE
  6
DOT
 62
    9
 10
289.33692519729209
 20
25
 11
289.33692519729209
 21
12.5
  0
LINE
  8
ADD_LINE
  6
DOT
 62
    9
 10
410.25538779593808
 20
25
 11
410.25538779593808
 21
12.5
  0
LINE
  8
ADD_LINE
  6
DOT
 62
    9
 10
30.270532795938095
 20
25
 11
30.270532795938095
 21
12.5
  0
TEXT
  8
_f-a_
 62
    7
 10
144.80372899661506
 20
25
 40
3
 41
0.8333333333333333
 50
0
  1
名　　称
  0
TEXT
  8
_f-a_
 62
    7
 10
274.33692519729209
 20
25
 40
3
 41
0.8333333333333333
 50
0
  1
縮　　尺
  0
TEXT
  8
_f-a_
 62
    7
 10
344.79615649661508
 20
25
 40
3
 41
0.8333333333333333
 50
0
  1
品　　番
  0
LINE
  8
ADD_LINE
  6
DOT
 62
    9
 10
30.270532795938095
 20
25
 11
410.25538779593808
 21
25
  0
LINE
  8
ADD_LINE
  6
DOT
 62
    9
 10
30.270532795938095
 20
12.5
 11
410.25538779593808
 21
12.5
  0
TEXT
  8
_0-a_
 62
    3
 10
276.08692519729209
 20
16.25
 40
5
 41
0.8
 50
0
  1
1/1
  0
POINT
  8
_0-9_
 62
    4
 10
41.249256574525077
 20
103.5
  0
POINT
  8
_0-9_
 62
    4
 10
130.24925657452508
 20
103.5
  0
LINE
  8
_0-9_
  6
CONTINUOUS
 62
    4
 10
41.249256574525077
 20
102.5
 11
41.249256574525077
 21
159
  0
LINE
  8
_0-9_
  6
CONTINUOUS
 62
    4
 10
130.24925657452508
 20
102.5
 11
130.24925657452508
 21
159
  0
POINT
  8
_0-9_
 62
    4
 10
48.336959131037332
 20
138.40000000000001
  0
POINT
  8
_0-9_
 62
    4
 10
123.16155401801282
 20
181.59999999999999
  0
POINT
  8
_0-9_
 62
    4
 10
123.16155401801282
 20
181.59999999999999
  0
POINT
  8
_0-9_
 62
    4
 10
124.28738880293353
 20
182.25000101613702
  0
LINE
  8
_0-9_
  6
CONTINUOUS
 62
    4
 10
124.78738880293353
 20
181.38397561235257
 11
124.78738828839226
 21
181.38397650356421
  0
LINE
  8
_0-9_
  6
CONTINUOUS
 62
    4
 10
123.16155401801282
 20
181.59999999999999
 11
124.28738880293353
 21
182.25000101613702
  0
TEXT
  8
_0-9_
 62
    3
 10
125.72647590200671
 20
183.65820860936384
 40
5
 41
0.8
 50
29.999999999999979
  1
1.3
  0
LINE
  8
_0-9_
  6
CONTINUOUS
 62
    4
 10
48.336959131037332
 20
138.40000000000001
 11
123.16155401801282
 21
181.59999999999999
  0
TEXT
  8
_0-9_
 62
    3
 10
79.761838274453169
 20
157.12051270189221
 40
5
 41
0.8
 50
29.999999999999989
  1
φ86.4
  0
LINE
  8
_0-9_
  6
CONTINUOUS
 62
    4
 10
41.249256574525077
 20
103.5
 11
130.24925657452508
 21
103.5
  0
TEXT
  8
_0-9_
 62
    3
 10
81.374256574525077
 20
104
 40
5
 41
0.8
 50
0
  1
φ89
  0
LINE
  8
_0-1_一般図
  6
CENTER1
 62
    4
 10
381.74423110779207
 20
160
 11
178.17067457323728
 21
160
  0
LINE
  8
_0-1_一般図
  6
CONTINUOUS
 62
    7
 10
253.70518986975617
 20
115.5
 11
183.75074342547495
 21
115.5
  0
INSERT
  2
-000-ATN-89
  8
_0-1_一般図
 10
85.749256574524907
 20
197.27094062558922
 41
2
 42
2
 50
180
  0
LINE
  8
_0-1_一般図
  6
CONTINUOUS
 62
    7
 10
183.75074342547495
 20
207.25459453853071
 11
183.75074342547495
 21
115.5
  0
POINT
  8
_0-9_
 62
    4
 10
183.75074342547495
 20
219.25459453853071
  0
LINE
  8
_0-9_
  6
CONTINUOUS
 62
    4
 10
183.75074342547495
 20
220.25459453853071
 11
183.75074342547495
 21
208.25459453853071
  0
LINE
  8
_0-1_一般図
  6
CONTINUOUS
 62
    7
 10
253.70518986975617
 20
207.25459453853071
 11
183.75074342547495
 21
207.25459453853071
  0
LINE
  8
_0-1_一般図
  6
CONTINUOUS
 62
    7
 10
183.75074342547495
 20
205.65469735306161
 11
253.70518986975617
 21
205.65469735306161
  0
LINE
  8
_0-1_一般図
  6
CONTINUOUS
 62
    5
 10
253.70518986975617
 20
201.30073452773013
 11
183.75074342547495
 21
201.30073452773013
  0
ARC
  8
_0-1_一般図
  6
CONTINUOUS
 62
    7
 10
369.0049153716194
 20
193
 40
10
 50
81.469234390051867
 51
90
  0
ARC
  8
_0-1_一般図
  6
CONTINUOUS
 62
    7
 10
369.00491537161935
 20
127
 40
10
 50
270
 51
278.53076560994816
  0
LINE
  8
_0-1_一般図
  6
CONTINUOUS
 62
    7
 10
369.00491537161929
 20
116.99999999999991
 11
333.75074342547498
 21
116.99999999999994
  0
LINE
  8
_0-1_一般図
  6
CONTINUOUS
 62
    7
 10
369.00491537161929
 20
203
 11
333.75074342547498
 21
203
  0
LINE
  8
_0-1_一般図
  6
CONTINUOUS
 62
    7
 10
370.48831990092174
 20
202.88936352868296
 11
374.75074342547492
 21
202.25
  0
LINE
  8
_0-1_一般図
  6
CONTINUOUS
 62
    7
 10
374.75074342547492
 20
202.25
 11
374.75074342547498
 21
117.74999999999999
  0
LINE
  8
_0-1_一般図
  6
CONTINUOUS
 62
    7
 10
370.48831990092174
 20
117.11063647131704
 11
374.75074342547498
 21
117.74999999999999
  0
LINE
  8
_0-1_一般図
  6
CONTINUOUS
 62
    5
 10
333.75074342547498
 20
201.01062526190125
 11
333.75074342547498
 21
119.38520433122517
  0
LINE
  8
_0-1_一般図
  6
CONTINUOUS
 62
    5
 10
369.75074342547492
 20
201.01062526190123
 11
369.75074342547492
 21
119.38520433122515
  0
LINE
  8
_0-1_一般図
  6
CONTINUOUS
 62
    7
 10
324.75074342547498
 20
205.65469735303344
 11
263.73087015686338
 21
205.65469735303344
  0
ARC
  8
_0-1_一般図
  6
CONTINUOUS
 62
    7
 10
328.48291654904858
 20
194.49999999999997
 40
10
 50
58.211669382948607
 51
90
  0
LINE
  8
_0-1_一般図
  6
CONTINUOUS
 62
    7
 10
324.75074342547498
 20
207.25459453853071
 11
263.73087015686338
 21
207.25459453853071
  0
LINE
  8
_0-1_一般図
  6
CONTINUOUS
 62
    7
 10
324.75074342547498
 20
204.5
 11
328.48291654904858
 21
204.5
  0
LINE
  8
_0-1_一般図
  6
CONTINUOUS
 62
    7
 10
324.75074342547498
 20
207.25459453853071
 11
324.75074342547498
 21
201.30073452773013
  0
LINE
  8
_0-1_一般図
  6
CONTINUOUS
 62
    5
 10
324.75074342547498
 20
201.30073452773013
 11
263.73087015686338
 21
201.30073452773013
  0
LINE
  8
_0-9_
  6
CONTINUOUS
 62
    4
 10
183.75074342547495
 20
219.25459453853071
 11
333.75074342547498
 21
219.25459453853071
  0
POINT
  8
_0-9_
 62
    4
 10
333.75074342547498
 20
219.25459453853071
  0
POINT
  8
_0-9_
 62
    4
 10
374.75074342547492
 20
219.25459453853071
  0
LINE
  8
_0-9_
  6
CONTINUOUS
 62
    4
 10
333.75074342547498
 20
220.25459453853071
 11
333.75074342547498
 21
204
  0
LINE
  8
_0-9_
  6
CONTINUOUS
 62
    4
 10
374.75074342547492
 20
220.25459453853071
 11
374.75074342547492
 21
203.25
  0
LINE
  8
_0-9_
  6
CONTINUOUS
 62
    4
 10
333.75074342547498
 20
219.25459453853071
 11
374.75074342547492
 21
219.25459453853071
  0
TEXT
  8
_0-9_
 62
    3
 10
352.12574342547492
 20
219.75459453853071
 40
5
 41
0.8
 50
0
  1
41
  0
LINE
  8
_0-1_一般図
  6
CENTER1
 62
    4
 10
85.749256574525077
 20
211.46359843622645
 11
85.749256574525077
 21
110.63630434444467
  0
POINT
  8
_0-9_
 62
    4
 10
142.24925657452502
 20
115.5
  0
POINT
  8
_0-9_
 62
    4
 10
142.24925657452502
 20
207.25459453853071
  0
LINE
  8
_0-9_
  6
CONTINUOUS
 62
    4
 10
143.24925657452502
 20
115.5
 11
86.749256574525077
 21
115.5
  0
LINE
  8
_0-9_
  6
CONTINUOUS
 62
    4
 10
143.24925657452502
 20
207.25459453853071
 11
102.3340623312192
 21
207.25459453853071
  0
LINE
  8
_0-9_
  6
CONTINUOUS
 62
    4
 10
142.24925657452502
 20
115.5
 11
142.24925657452502
 21
207.25459453853071
  0
TEXT
  8
_0-9_
 62
    3
 10
141.74925657452502
 20
157.00229726926534
 40
5
 41
0.8
 50
90
  1
91.8
  0
POINT
  8
_0-9_
 62
    4
 10
68.749256574524878
 20
219.25459453853071
  0
POINT
  8
_0-9_
 62
    4
 10
102.74925657452486
 20
219.25459453853071
  0
LINE
  8
_0-9_
  6
CONTINUOUS
 62
    4
 10
68.749256574524878
 20
220.25459453853071
 11
68.749256574524878
 21
206.95469735306162
  0
LINE
  8
_0-9_
  6
CONTINUOUS
 62
    4
 10
102.74925657452486
 20
220.25459453853071
 11
102.74925657452486
 21
206.95469735306162
  0
LINE
  8
_0-9_
  6
CONTINUOUS
 62
    4
 10
68.749256574524878
 20
219.25459453853071
 11
102.74925657452486
 21
219.25459453853071
  0
TEXT
  8
_0-9_
 62
    3
 10
83.624256574524878
 20
219.75459453853071
 40
5
 41
0.8
 50
0
  1
34
  0
LINE
  8
_0-1_一般図
  6
CENTER1
 62
    4
 10
37.218090832510313
 20
160
 11
134.3300311620971
 21
160
  0
ARC
  8
_0-1_一般図
  6
CONTINUOUS
 62
    7
 10
328.48291654904864
 20
125.50000000000003
 40
10
 50
270
 51
301.78833061705137
  0
LINE
  8
_0-1_一般図
  6
CONTINUOUS
 62
    7
 10
328.48291654904864
 20
115.5
 11
263.73087015686338
 21
115.5
  0
TEXT
  8
_0-9_
 62
    3
 10
242.00074342547495
 20
219.75459453853071
 40
5
 41
0.8
 50
0
  1
900・2900・3900
  0
TEXT
  8
_0-a_
 62
    3
 10
343.17115649661508
 20
16.25
 40
5
 41
0.8
 50
0
  1
ATN-89
  0
TEXT
  8
_0-a_
 62
    3
 10
89.178728975628474
 20
16.25
 40
5
 41
0.8
 50
0
  1
アルミたてとい新型　丸バンドレスタイプ(接続部一体成形)
  0
ENDSEC
  0
EOF
