  0
SECTION
  2
HEADER
  9
$ACADVER
  1
AC1009
  9
$INSBASE
 10
0
 20
0
 30
0
  9
$EXTMIN
 10
0
 20
0
  9
$EXTMAX
 10
840
 20
594
  9
$LIMMIN
 10
0
 20
0
  9
$LIMMAX
 10
840
 20
594
  9
$LTSCALE
 40
2
  0
ENDSEC
  0
SECTION
  2
TABLES
  0
TABLE
  2
LTYPE
 70
     9
  0
LTYPE
  2
CONTINUOUS
 70
    64
  3
実線
 72
    65
 73
     0
 40
0.0
  0
LTYPE
  2
DASHED1
 70
    64
  3
--  --  --  --  --  --  --  --  
 72
    65
 73
     2
 40
2.5
 49
1.25
 49
-1.25
  0
LTYPE
  2
DASHED2
 70
    64
  3
----    ----    ----    ----    
 72
    65
 73
     2
 40
5.0
 49
2.5
 49
-2.5
  0
LTYPE
  2
DASHED3
 70
    64
  3
------  ------  ------  ------  
 72
    65
 73
     2
 40
5.0
 49
3.75
 49
-1.25
  0
LTYPE
  2
CENTER1
 70
    64
  3
----- - ----- - ----- - ----- - 
 72
    65
 73
     4
 40
10.0
 49
6.25
 49
-1.25
 49
1.25
 49
-1.25
  0
LTYPE
  2
CENTER2
 70
    64
  3
----------  --  ----------  --  
 72
    65
 73
     4
 40
20.0
 49
12.5
 49
-2.5
 49
2.5
 49
-2.5
  0
LTYPE
  2
PHANTOM1
 70
    64
  3
--- - - --- - - --- - - --- - - 
 72
    65
 73
     6
 40
10.0
 49
3.25
 49
-1.25
 49
1.25
 49
-1.25
 49
1.25
 49
-1.25
  0
LTYPE
  2
PHANTOM2
 70
    64
  3
--------  -  -  --------  -  -  
 72
    65
 73
     6
 40
20.0
 49
10.0
 49
-2.5
 49
1.25
 49
-2.5
 49
1.25
 49
-2.5
  0
LTYPE
  2
DOT
 70
    64
  3
-   -   -   -   -   -   -   -   
 72
    65
 73
     2
 40
2.5
 49
0.625
 49
-1.875
  0
LTYPE
  2
DUMMY
 70
    64
  3
ダミー
 72
    65
 73
     0
 40
0.0
  0
LTYPE
  2
RAND1
 70
    64
  3
ランダム線1
 72
    65
 73
     4
 40
10.0
 49
1.0
 49
-2.0
 49
3.0
 49
-4.0
  0
LTYPE
  2
RAND2
 70
    64
  3
ランダム線2
 72
    65
 73
     4
 40
14.0
 49
2.0
 49
-3.0
 49
4.0
 49
-5.0
  0
LTYPE
  2
RAND3
 70
    64
  3
ランダム線3
 72
    65
 73
     4
 40
18.0
 49
3.0
 49
-4.0
 49
5.0
 49
-6.0
  0
LTYPE
  2
RAND4
 70
    64
  3
ランダム線4
 72
    65
 73
     4
 40
22.0
 49
4.0
 49
-5.0
 49
6.0
 49
-7.0
  0
LTYPE
  2
RAND5
 70
    64
  3
ランダム線5
 72
    65
 73
     4
 40
26.0
 49
5.0
 49
-6.0
 49
7.0
 49
-8.0
  0
LTYPE
  2
LONG1
 70
    64
  3
----------  --  ----------  --  
 72
    65
 73
     4
 40
40.0
 49
32.5
 49
-2.5
 49
2.5
 49
-2.5
  0
LTYPE
  2
LONG2
 70
    64
  3
--------  -  -  --------  -  -  
 72
    65
 73
     6
 40
40.0
 49
30.0
 49
-2.5
 49
1.25
 49
-2.5
 49
1.25
 49
-2.5
  0
LTYPE
  2
LONG3
 70
    64
  3
+++++++++++++++..+++++++++++++++
 72
    65
 73
     2
 40
40.0
 49
37.5
 49
-2.5
  0
LTYPE
  2
LONG4
 70
    64
  3
+++++++++++++++..+++++++++++++++
 72
    65
 73
     2
 40
80.0
 49
75.0
 49
-5.0
  0
LTYPE
  2
LONG5
 70
    64
  3
----------  --  ----------  --  
 72
    65
 73
     4
 40
60.0
 49
37.5
 49
-7.5
 49
7.5
 49
-7.5
  0
LTYPE
  2
dashed
 70
   64
  3
-------   -------------   ------
 72
   65
 73
    2
 40
7.5
 49
6
 49
-1.5
  0
LTYPE
  2
dashed_spaced
 70
   64
  3
----        --------        ----
 72
   65
 73
    2
 40
12
 49
6
 49
-6
  0
LTYPE
  2
long_dashed_dotted
 70
   64
  3
------------- --- --------------
 72
   65
 73
    4
 40
15.25
 49
12
 49
-1.5
 49
0.25
 49
-1.5
  0
LTYPE
  2
long_dashed_double-dotted
 70
   64
  3
----------- --- --- ------------
 72
   65
 73
    6
 40
17
 49
12
 49
-1.5
 49
0.25
 49
-1.5
 49
0.25
 49
-1.5
  0
LTYPE
  2
long_dashed_triplicate-dotted
 70
   64
  3
--------- --- --- --- ----------
 72
   65
 73
    8
 40
18.75
 49
12
 49
-1.5
 49
0.25
 49
-1.5
 49
0.25
 49
-1.5
 49
0.25
 49
-1.5
  0
LTYPE
  2
dotted
 70
   64
  3
   -       -       -       -    
 72
   65
 73
    2
 40
1.75
 49
0.25
 49
-1.5
  0
LTYPE
  2
chain
 70
   64
  3
-------------- -- --------------
 72
   65
 73
    4
 40
18.5
 49
12
 49
-1.5
 49
3.5
 49
-1.5
  0
LTYPE
  2
chain_double_dash
 70
   64
  3
------------ -- -- -------------
 72
   65
 73
    6
 40
23.5
 49
12
 49
-1.5
 49
3.5
 49
-1.5
 49
3.5
 49
-1.5
  0
LTYPE
  2
dashed_dotted
 70
   64
  3
-----------     -     ----------
 72
   65
 73
    4
 40
9.25
 49
6
 49
-1.5
 49
0.25
 49
-1.5
  0
LTYPE
  2
double-dashed_dotted
 70
   64
  3
------   -----------   -   -----
 72
   65
 73
    6
 40
16.75
 49
6
 49
-1.5
 49
6
 49
-1.5
 49
0.25
 49
-1.5
  0
LTYPE
  2
dashed_double-dotted
 70
   64
  3
---------    -    -    ---------
 72
   65
 73
    6
 40
11
 49
6
 49
-1.5
 49
0.25
 49
-1.5
 49
0.25
 49
-1.5
  0
LTYPE
  2
double-dashed_double-dotted
 70
   64
  3
-----   ---------   -   -   ----
 72
   65
 73
    8
 40
18.5
 49
6
 49
-1.5
 49
6
 49
-1.5
 49
0.25
 49
-1.5
 49
0.25
 49
-1.5
  0
LTYPE
  2
dashed_triplicate-dotted
 70
   64
  3
-------    -    -    -    ------
 72
   65
 73
    8
 40
12.75
 49
6
 49
-1.5
 49
0.25
 49
-1.5
 49
0.25
 49
-1.5
 49
0.25
 49
-1.5
  0
LTYPE
  2
double-dashed_triplicate-dotted
 70
   64
  3
-----  ---------  -  -  -  -----
 72
   65
 73
   10
 40
20.25
 49
6
 49
-1.5
 49
6
 49
-1.5
 49
0.25
 49
-1.5
 49
0.25
 49
-1.5
 49
0.25
 49
-1.5
  0
LTYPE
  2
undefined
 70
   64
  3
--------------------------------
 72
   65
 73
    0
 40
0
  0
ENDTAB
  0
TABLE
  2
STYLE
  5
3
100
AcDbSymbolTable
 70
     1
  0
STYLE
  5
10
100
AcDbSymbolTableRecord
100
AcDbTextStyleTableRecord
  2
STANDARD
 70
     0
 40
0.0
 41
1.0
 50
0.0
 71
     0
 42
0.2
  3
txt
  4
bigfont.shx
  0
STYLE
  5
26
100
AcDbSymbolTableRecord
100
AcDbTextStyleTableRecord
  2
TATEGAKI
 70
    68
 40
0.0
 41
1.0
 50
0.0
 71
     0
 42
1.0
  3
txt
  4
bigfont.shx
  0
ENDTAB
  0
TABLE
  2
LAYER
 70
    6
  0
LAYER
  2
_0-1_一般図
 70
   64
 62
    7
  6
CONTINUOUS
  0
LAYER
  2
_0-9_
 70
   64
 62
    7
  6
CONTINUOUS
  0
LAYER
  2
_0-a_
 70
   64
 62
    7
  6
CONTINUOUS
  0
LAYER
  2
_f-1_一般図
 70
   64
 62
    7
  6
CONTINUOUS
  0
LAYER
  2
_f-a_
 70
   64
 62
    7
  6
CONTINUOUS
  0
LAYER
  2
ADD_LINE
 70
   64
 62
    7
  6
CONTINUOUS
  0
ENDTAB
  0
ENDSEC
  0
SECTION
  2
BLOCKS
  0
BLOCK
  2
-000-ATN-140
 70
   64
 10
0
 20
0
 30
0
  0
CIRCLE
  8
_a-1_一般図
  6
CONTINUOUS
 62
    7
 10
-0.0000000000001421
 20
59.842557547002862
 40
68.099999999999994
  0
LINE
  8
_a-1_一般図
  6
CONTINUOUS
 62
    7
 10
-16.065712826617244
 20
-12.767136158714564
 11
-16.699999999999932
 21
-12.767136158714564
  0
LINE
  8
_a-1_一般図
  6
CONTINUOUS
 62
    7
 10
16.0657128266173
 20
-12.767136158714571
 11
16.700000000000045
 21
-12.767136158714571
  0
ARC
  8
_a-1_一般図
  6
CONTINUOUS
 62
    7
 10
-15.584805756694266
 20
-12.945191711656904
 40
1.4218416325267724
 50
186.24039513560112
 51
11.274861586275563
  0
ARC
  8
_a-1_一般図
  6
CONTINUOUS
 62
    7
 10
-16.699999999999932
 20
-13.067136158714575
 40
0.3
 50
90
 51
186.24039513560106
  0
ARC
  8
_a-1_一般図
  6
CONTINUOUS
 62
    7
 10
-16.065712826617244
 20
-12.467136158714553
 40
0.3
 50
270
 51
11.27486158627562
  0
ARC
  8
_a-1_一般図
  6
CONTINUOUS
 62
    7
 10
15.584805756694351
 20
-12.945191711656911
 40
1.4218416325267724
 50
168.72513841372435
 51
353.75960486439885
  0
ARC
  8
_a-1_一般図
  6
CONTINUOUS
 62
    7
 10
16.700000000000045
 20
-13.067136158714582
 40
0.3
 50
353.75960486439891
 51
90
  0
ARC
  8
_a-1_一般図
  6
CONTINUOUS
 62
    7
 10
16.0657128266173
 20
-12.46713615871456
 40
0.3
 50
168.72513841372435
 51
270
  0
LINE
  8
_a-1_一般図
  6
CONTINUOUS
 62
    7
 10
15.771502666070518
 20
-12.408481393937642
 11
16.58199488696016
 21
-8.3430819786185353
  0
ARC
  8
_a-1_一般図
  6
CONTINUOUS
 62
    7
 10
16.876205047506943
 20
-8.4017367433954817
 40
0.3
 50
103.89007076237647
 51
168.72513841372324
  0
LINE
  8
_a-1_一般図
  6
CONTINUOUS
 62
    7
 10
14.926192515963209
 20
-8.9765152818811131
 11
14.190404906768379
 21
-12.667199089970515
  0
ARC
  8
_a-1_一般図
  6
CONTINUOUS
 62
    7
 10
14.631982355416426
 20
-8.9178605171041809
 40
0.3
 50
348.72513841372592
 51
102.0131573718584
  0
LINE
  8
_a-1_一般図
  6
CONTINUOUS
 62
    7
 10
-14.926192515963095
 20
-8.9765152818812197
 11
-14.190404906768293
 21
-12.667199089970511
  0
ARC
  8
_a-1_一般図
  6
CONTINUOUS
 62
    7
 10
-0.0000000000001421
 20
59.842557547002862
 40
70
 50
257.98684262814123
 51
282.01315737185911
  0
ARC
  8
_a-1_一般図
  6
CONTINUOUS
 62
    7
 10
-14.631982355416312
 20
-8.9178605171042733
 40
0.3
 50
77.986842628141062
 51
191.2748615862767
  0
LINE
  8
_a-1_一般図
  6
CONTINUOUS
 62
    7
 10
-15.771502666070432
 20
-12.408481393937635
 11
-16.581994886960075
 21
-8.3430819786185992
  0
ARC
  8
_a-1_一般図
  6
CONTINUOUS
 62
    7
 10
-0.0000000000001421
 20
59.842557547002862
 40
70
 50
283.89007076237743
 51
256.10992923762291
  0
ARC
  8
_a-1_一般図
  6
CONTINUOUS
 62
    7
 10
-16.876205047506858
 20
-8.4017367433955457
 40
0.3
 50
11.27486158627673
 51
76.109929237623518
  0
ENDBLK
  0
ENDSEC
  0
SECTION
  2
ENTITIES
  0
LINE
  8
ADD_LINE
  6
DOT
 62
    9
 10
538.67385039458418
 20
50
 11
538.67385039458418
 21
25
  0
LINE
  8
ADD_LINE
  6
DOT
 62
    9
 10
578.67385039458418
 20
50
 11
578.67385039458418
 21
25
  0
LINE
  8
ADD_LINE
  6
DOT
 62
    9
 10
820.51077559187615
 20
50
 11
820.51077559187615
 21
25
  0
LINE
  8
ADD_LINE
  6
DOT
 62
    9
 10
60.54106559187619
 20
50
 11
60.54106559187619
 21
25
  0
TEXT
  8
_f-a_
 62
    7
 10
289.60745799323013
 20
50
 40
6
 41
0.8333333333333333
 50
0
  1
名　　称
  0
TEXT
  8
_f-a_
 62
    7
 10
548.67385039458418
 20
50
 40
6
 41
0.8333333333333333
 50
0
  1
縮　　尺
  0
TEXT
  8
_f-a_
 62
    7
 10
689.59231299323017
 20
50
 40
6
 41
0.8333333333333333
 50
0
  1
品　　番
  0
LINE
  8
ADD_LINE
  6
DOT
 62
    9
 10
60.54106559187619
 20
50
 11
820.51077559187615
 21
50
  0
LINE
  8
ADD_LINE
  6
DOT
 62
    9
 10
60.54106559187619
 20
25
 11
820.51077559187615
 21
25
  0
TEXT
  8
_0-a_
 62
    3
 10
552.17385039458418
 20
32.5
 40
10
 41
0.8
 50
0
  1
1/2
  0
LINE
  8
_0-1_一般図
  6
CENTER1
 62
    4
 10
63.490143066477117
 20
320
 11
218.04148631842591
 21
320
  0
LINE
  8
_0-1_一般図
  6
CENTER1
 62
    4
 10
141.12565399348006
 20
409.61490949242659
 11
141.12565399348006
 21
241.09808341650654
  0
LINE
  8
_0-9_
  6
CONTINUOUS
 62
    4
 10
71.125653993480057
 20
224
 11
71.125653993480057
 21
318
  0
LINE
  8
_0-9_
  6
CONTINUOUS
 62
    4
 10
211.12565399348006
 20
224
 11
211.12565399348006
 21
318
  0
POINT
  8
_0-9_
 62
    4
 10
82.149323995759801
 20
285.94999999999999
  0
POINT
  8
_0-9_
 62
    4
 10
200.10198399120031
 20
354.04999999999995
  0
POINT
  8
_0-9_
 62
    4
 10
200.10198399120031
 20
354.04999999999995
  0
POINT
  8
_0-9_
 62
    4
 10
201.7474338563386
 20
355.00000092257562
  0
LINE
  8
_0-9_
  6
CONTINUOUS
 62
    4
 10
200.7474338563386
 20
356.73205173014446
 11
200.74743438898787
 21
356.7320508075689
  0
LINE
  8
_0-9_
  6
CONTINUOUS
 62
    4
 10
200.10198399120031
 20
354.04999999999995
 11
201.7474338563386
 21
355.00000092257562
  0
TEXT
  8
_0-9_
 62
    3
 10
204.75447707504281
 20
357.89081867273859
 40
10
 41
0.8
 50
30.000000000000099
  1
1.9
  0
LINE
  8
_0-9_
  6
CONTINUOUS
 62
    4
 10
82.149323995759801
 20
285.94999999999999
 11
200.10198399120031
 21
354.04999999999995
  0
TEXT
  8
_0-9_
 62
    3
 10
127.20226023482127
 20
313.11602540378442
 40
10
 41
0.8
 50
30.000000000000018
  1
φ136.2
  0
POINT
  8
_0-9_
 62
    4
 10
71.125653993480057
 20
226
  0
POINT
  8
_0-9_
 62
    4
 10
211.12565399348006
 20
226
  0
LINE
  8
_0-9_
  6
CONTINUOUS
 62
    4
 10
71.125653993480057
 20
226
 11
211.12565399348006
 21
226
  0
TEXT
  8
_0-9_
 62
    3
 10
130.12565399348006
 20
227
 40
10
 41
0.8
 50
0
  1
φ140
  0
LINE
  8
_0-1_一般図
  6
CENTER1
 62
    4
 10
284.84553590553799
 20
320
 11
775.78955961789734
 21
320
  0
LINE
  8
_0-1_一般図
  6
CONTINUOUS
 62
    7
 10
293.87434600652028
 20
250
 11
488.18667685586007
 21
250
  0
INSERT
  2
-000-ATN-140
  8
_0-1_一般図
 10
141.12565399347989
 20
379.8425575470028
 41
1
 42
1
 50
180
  0
POINT
  8
_0-9_
 62
    4
 10
235.12565399348
 20
249.99999999999997
  0
POINT
  8
_0-9_
 62
    4
 10
235.12565399348
 20
394.20959089118651
  0
LINE
  8
_0-9_
  6
CONTINUOUS
 62
    4
 10
237.12565399348
 20
249.99999999999997
 11
143.12565399348006
 21
249.99999999999997
  0
LINE
  8
_0-9_
  6
CONTINUOUS
 62
    4
 10
237.12565399348
 20
394.20959089118651
 11
158.71045975017415
 21
394.20959089118651
  0
LINE
  8
_0-9_
  6
CONTINUOUS
 62
    4
 10
235.12565399348
 20
249.99999999999997
 11
235.12565399348
 21
394.20959089118651
  0
TEXT
  8
_0-9_
 62
    3
 10
234.12565399348
 20
311.10479544559325
 40
10
 41
0.8
 50
90
  1
144.2
  0
POINT
  8
_0-9_
 62
    4
 10
124.12565399347983
 20
418.20959089118651
  0
POINT
  8
_0-9_
 62
    4
 10
158.12565399347983
 20
418.20959089118651
  0
LINE
  8
_0-9_
  6
CONTINUOUS
 62
    4
 10
124.12565399347983
 20
420.20959089118651
 11
124.12565399347983
 21
394.90969370571742
  0
LINE
  8
_0-9_
  6
CONTINUOUS
 62
    4
 10
158.12565399347983
 20
420.20959089118651
 11
158.12565399347983
 21
394.90969370571742
  0
LINE
  8
_0-9_
  6
CONTINUOUS
 62
    4
 10
124.12565399347983
 20
418.20959089118651
 11
158.12565399347983
 21
418.20959089118651
  0
TEXT
  8
_0-9_
 62
    3
 10
136.87565399347983
 20
419.20959089118651
 40
10
 41
0.8
 50
0
  1
34
  0
LINE
  8
_0-1_一般図
  6
CONTINUOUS
 62
    7
 10
293.87434600652028
 20
250
 11
293.87434600652028
 21
394.20959089118651
  0
POINT
  8
_0-9_
 62
    4
 10
293.87434600652028
 20
418.20959089118651
  0
LINE
  8
_0-9_
  6
CONTINUOUS
 62
    4
 10
293.87434600652028
 20
420.20959089118651
 11
293.87434600652028
 21
396.20959089118651
  0
LINE
  8
_0-1_一般図
  6
CONTINUOUS
 62
    7
 10
293.87434600652028
 20
394.20959089118651
 11
488.18667685586007
 21
394.20959089118651
  0
ARC
  8
_0-1_一般図
  6
CONTINUOUS
 62
    7
 10
769.12851795266465
 20
377.79999999999995
 40
10
 50
81.469234390051867
 51
90
  0
LINE
  8
_0-1_一般図
  6
CONTINUOUS
 62
    7
 10
769.12851795266454
 20
387.79999999999995
 11
703.87434600652023
 21
387.79999999999995
  0
ARC
  8
_0-1_一般図
  6
CONTINUOUS
 62
    7
 10
769.12851795266454
 20
262.19999999999999
 40
10
 50
270
 51
278.53076560994816
  0
LINE
  8
_0-1_一般図
  6
CONTINUOUS
 62
    7
 10
769.12851795266454
 20
252.20000000000002
 11
703.87434600652023
 21
252.19999999999999
  0
LINE
  8
_0-1_一般図
  6
CONTINUOUS
 62
    7
 10
770.61192248196699
 20
387.68936352868292
 11
774.87434600652023
 21
387.04999999999995
  0
LINE
  8
_0-1_一般図
  6
CONTINUOUS
 62
    7
 10
774.87434600652023
 20
387.04999999999995
 11
774.87434600652023
 21
252.95000000000005
  0
LINE
  8
_0-1_一般図
  6
CONTINUOUS
 62
    7
 10
770.61192248196699
 20
252.31063647131703
 11
774.87434600652023
 21
252.95000000000005
  0
LINE
  8
_0-1_一般図
  6
CONTINUOUS
 62
    5
 10
703.87434600652023
 20
383.55515843252601
 11
703.87434600652023
 21
255.4704531076072
  0
LINE
  8
_0-1_一般図
  6
CONTINUOUS
 62
    5
 10
769.87434600652023
 20
383.55515843252601
 11
769.87434600652023
 21
255.4704531076072
  0
ARC
  8
_0-1_一般図
  6
CONTINUOUS
 62
    7
 10
697.61655086765541
 20
379.99999999999994
 40
10
 50
51.260575402144319
 51
90
  0
ARC
  8
_0-1_一般図
  6
CONTINUOUS
 62
    7
 10
697.61655086765541
 20
259.99999999999994
 40
10
 50
270
 51
308.7394245978557
  0
LINE
  8
_0-1_一般図
  6
CONTINUOUS
 62
    7
 10
509.27527608148876
 20
250
 11
697.61655086765541
 21
250
  0
LINE
  8
_0-1_一般図
  6
CONTINUOUS
 62
    7
 10
509.27527608148876
 20
394.20959089118651
 11
694.87434600652023
 21
394.20959089118651
  0
LINE
  8
_0-1_一般図
  6
CONTINUOUS
 62
    7
 10
694.87434600652023
 20
390
 11
697.61655086765541
 21
390
  0
LINE
  8
_0-1_一般図
  6
CONTINUOUS
 62
    5
 10
293.87434600652028
 20
387.9985212031865
 11
488.18667685586007
 21
387.9985212031865
  0
LINE
  8
_0-1_一般図
  6
CONTINUOUS
 62
    5
 10
509.27527608148876
 20
387.9985212031865
 11
694.87434600652023
 21
387.9985212031865
  0
LINE
  8
_0-1_一般図
  6
CONTINUOUS
 62
    7
 10
694.87434600652023
 20
394.20959089118651
 11
694.87434600652023
 21
387.9985212031865
  0
LINE
  8
_0-1_一般図
  6
CONTINUOUS
 62
    7
 10
293.87434600652028
 20
392.60969370618648
 11
488.18667685586007
 21
392.60969370618648
  0
LINE
  8
_0-1_一般図
  6
CONTINUOUS
 62
    7
 10
509.27527608148876
 20
392.60969370618648
 11
694.87434600652023
 21
392.60969370618648
  0
POINT
  8
_0-9_
 62
    4
 10
703.87434600652023
 20
418.20959089118651
  0
POINT
  8
_0-9_
 62
    4
 10
774.87434600652023
 20
418.20959089118651
  0
LINE
  8
_0-9_
  6
CONTINUOUS
 62
    4
 10
703.87434600652023
 20
420.20959089118651
 11
703.87434600652023
 21
389.79999999999995
  0
LINE
  8
_0-9_
  6
CONTINUOUS
 62
    4
 10
774.87434600652023
 20
420.20959089118651
 11
774.87434600652023
 21
389.04999999999995
  0
LINE
  8
_0-9_
  6
CONTINUOUS
 62
    4
 10
703.87434600652023
 20
418.20959089118651
 11
774.87434600652023
 21
418.20959089118651
  0
TEXT
  8
_0-9_
 62
    3
 10
735.12434600652023
 20
419.20959089118651
 40
10
 41
0.8
 50
0
  1
71
  0
LINE
  8
_0-9_
  6
CONTINUOUS
 62
    4
 10
293.87434600652028
 20
418.20959089118651
 11
703.87434600652023
 21
418.20959089118651
  0
TEXT
  8
_0-9_
 62
    3
 10
465.37434600652028
 20
419.20959089118651
 40
10
 41
0.8
 50
0
  1
900・2900・3900
  0
TEXT
  8
_0-a_
 62
    3
 10
684.09231299323017
 20
32.5
 40
10
 41
0.8
 50
0
  1
ATN-140
  0
TEXT
  8
_0-a_
 62
    3
 10
178.35745799323013
 20
32.5
 40
10
 41
0.8
 50
0
  1
アルミたてとい新型　丸バンドレスタイプ(接続部一体成形)
  0
ENDSEC
  0
EOF
