  0
SECTION
  2
HEADER
  9
$ACADVER
  1
AC1009
  9
$INSBASE
 10
0
 20
0
 30
0
  9
$EXTMIN
 10
0
 20
0
  9
$EXTMAX
 10
840
 20
594
  9
$LIMMIN
 10
0
 20
0
  9
$LIMMAX
 10
840
 20
594
  9
$LTSCALE
 40
2
  0
ENDSEC
  0
SECTION
  2
TABLES
  0
TABLE
  2
LTYPE
 70
     9
  0
LTYPE
  2
CONTINUOUS
 70
    64
  3
実線
 72
    65
 73
     0
 40
0.0
  0
LTYPE
  2
DASHED1
 70
    64
  3
--  --  --  --  --  --  --  --  
 72
    65
 73
     2
 40
2.5
 49
1.25
 49
-1.25
  0
LTYPE
  2
DASHED2
 70
    64
  3
----    ----    ----    ----    
 72
    65
 73
     2
 40
5.0
 49
2.5
 49
-2.5
  0
LTYPE
  2
DASHED3
 70
    64
  3
------  ------  ------  ------  
 72
    65
 73
     2
 40
5.0
 49
3.75
 49
-1.25
  0
LTYPE
  2
CENTER1
 70
    64
  3
----- - ----- - ----- - ----- - 
 72
    65
 73
     4
 40
10.0
 49
6.25
 49
-1.25
 49
1.25
 49
-1.25
  0
LTYPE
  2
CENTER2
 70
    64
  3
----------  --  ----------  --  
 72
    65
 73
     4
 40
20.0
 49
12.5
 49
-2.5
 49
2.5
 49
-2.5
  0
LTYPE
  2
PHANTOM1
 70
    64
  3
--- - - --- - - --- - - --- - - 
 72
    65
 73
     6
 40
10.0
 49
3.25
 49
-1.25
 49
1.25
 49
-1.25
 49
1.25
 49
-1.25
  0
LTYPE
  2
PHANTOM2
 70
    64
  3
--------  -  -  --------  -  -  
 72
    65
 73
     6
 40
20.0
 49
10.0
 49
-2.5
 49
1.25
 49
-2.5
 49
1.25
 49
-2.5
  0
LTYPE
  2
DOT
 70
    64
  3
-   -   -   -   -   -   -   -   
 72
    65
 73
     2
 40
2.5
 49
0.625
 49
-1.875
  0
LTYPE
  2
DUMMY
 70
    64
  3
ダミー
 72
    65
 73
     0
 40
0.0
  0
LTYPE
  2
RAND1
 70
    64
  3
ランダム線1
 72
    65
 73
     4
 40
10.0
 49
1.0
 49
-2.0
 49
3.0
 49
-4.0
  0
LTYPE
  2
RAND2
 70
    64
  3
ランダム線2
 72
    65
 73
     4
 40
14.0
 49
2.0
 49
-3.0
 49
4.0
 49
-5.0
  0
LTYPE
  2
RAND3
 70
    64
  3
ランダム線3
 72
    65
 73
     4
 40
18.0
 49
3.0
 49
-4.0
 49
5.0
 49
-6.0
  0
LTYPE
  2
RAND4
 70
    64
  3
ランダム線4
 72
    65
 73
     4
 40
22.0
 49
4.0
 49
-5.0
 49
6.0
 49
-7.0
  0
LTYPE
  2
RAND5
 70
    64
  3
ランダム線5
 72
    65
 73
     4
 40
26.0
 49
5.0
 49
-6.0
 49
7.0
 49
-8.0
  0
LTYPE
  2
LONG1
 70
    64
  3
----------  --  ----------  --  
 72
    65
 73
     4
 40
40.0
 49
32.5
 49
-2.5
 49
2.5
 49
-2.5
  0
LTYPE
  2
LONG2
 70
    64
  3
--------  -  -  --------  -  -  
 72
    65
 73
     6
 40
40.0
 49
30.0
 49
-2.5
 49
1.25
 49
-2.5
 49
1.25
 49
-2.5
  0
LTYPE
  2
LONG3
 70
    64
  3
+++++++++++++++..+++++++++++++++
 72
    65
 73
     2
 40
40.0
 49
37.5
 49
-2.5
  0
LTYPE
  2
LONG4
 70
    64
  3
+++++++++++++++..+++++++++++++++
 72
    65
 73
     2
 40
80.0
 49
75.0
 49
-5.0
  0
LTYPE
  2
LONG5
 70
    64
  3
----------  --  ----------  --  
 72
    65
 73
     4
 40
60.0
 49
37.5
 49
-7.5
 49
7.5
 49
-7.5
  0
LTYPE
  2
dashed
 70
   64
  3
-------   -------------   ------
 72
   65
 73
    2
 40
7.5
 49
6
 49
-1.5
  0
LTYPE
  2
dashed_spaced
 70
   64
  3
----        --------        ----
 72
   65
 73
    2
 40
12
 49
6
 49
-6
  0
LTYPE
  2
long_dashed_dotted
 70
   64
  3
------------- --- --------------
 72
   65
 73
    4
 40
15.25
 49
12
 49
-1.5
 49
0.25
 49
-1.5
  0
LTYPE
  2
long_dashed_double-dotted
 70
   64
  3
----------- --- --- ------------
 72
   65
 73
    6
 40
17
 49
12
 49
-1.5
 49
0.25
 49
-1.5
 49
0.25
 49
-1.5
  0
LTYPE
  2
long_dashed_triplicate-dotted
 70
   64
  3
--------- --- --- --- ----------
 72
   65
 73
    8
 40
18.75
 49
12
 49
-1.5
 49
0.25
 49
-1.5
 49
0.25
 49
-1.5
 49
0.25
 49
-1.5
  0
LTYPE
  2
dotted
 70
   64
  3
   -       -       -       -    
 72
   65
 73
    2
 40
1.75
 49
0.25
 49
-1.5
  0
LTYPE
  2
chain
 70
   64
  3
-------------- -- --------------
 72
   65
 73
    4
 40
18.5
 49
12
 49
-1.5
 49
3.5
 49
-1.5
  0
LTYPE
  2
chain_double_dash
 70
   64
  3
------------ -- -- -------------
 72
   65
 73
    6
 40
23.5
 49
12
 49
-1.5
 49
3.5
 49
-1.5
 49
3.5
 49
-1.5
  0
LTYPE
  2
dashed_dotted
 70
   64
  3
-----------     -     ----------
 72
   65
 73
    4
 40
9.25
 49
6
 49
-1.5
 49
0.25
 49
-1.5
  0
LTYPE
  2
double-dashed_dotted
 70
   64
  3
------   -----------   -   -----
 72
   65
 73
    6
 40
16.75
 49
6
 49
-1.5
 49
6
 49
-1.5
 49
0.25
 49
-1.5
  0
LTYPE
  2
dashed_double-dotted
 70
   64
  3
---------    -    -    ---------
 72
   65
 73
    6
 40
11
 49
6
 49
-1.5
 49
0.25
 49
-1.5
 49
0.25
 49
-1.5
  0
LTYPE
  2
double-dashed_double-dotted
 70
   64
  3
-----   ---------   -   -   ----
 72
   65
 73
    8
 40
18.5
 49
6
 49
-1.5
 49
6
 49
-1.5
 49
0.25
 49
-1.5
 49
0.25
 49
-1.5
  0
LTYPE
  2
dashed_triplicate-dotted
 70
   64
  3
-------    -    -    -    ------
 72
   65
 73
    8
 40
12.75
 49
6
 49
-1.5
 49
0.25
 49
-1.5
 49
0.25
 49
-1.5
 49
0.25
 49
-1.5
  0
LTYPE
  2
double-dashed_triplicate-dotted
 70
   64
  3
-----  ---------  -  -  -  -----
 72
   65
 73
   10
 40
20.25
 49
6
 49
-1.5
 49
6
 49
-1.5
 49
0.25
 49
-1.5
 49
0.25
 49
-1.5
 49
0.25
 49
-1.5
  0
LTYPE
  2
undefined
 70
   64
  3
--------------------------------
 72
   65
 73
    0
 40
0
  0
ENDTAB
  0
TABLE
  2
STYLE
  5
3
100
AcDbSymbolTable
 70
     1
  0
STYLE
  5
10
100
AcDbSymbolTableRecord
100
AcDbTextStyleTableRecord
  2
STANDARD
 70
     0
 40
0.0
 41
1.0
 50
0.0
 71
     0
 42
0.2
  3
txt
  4
bigfont.shx
  0
STYLE
  5
26
100
AcDbSymbolTableRecord
100
AcDbTextStyleTableRecord
  2
TATEGAKI
 70
    68
 40
0.0
 41
1.0
 50
0.0
 71
     0
 42
1.0
  3
txt
  4
bigfont.shx
  0
ENDTAB
  0
TABLE
  2
LAYER
 70
    7
  0
LAYER
  2
_0-1_
 70
   64
 62
    7
  6
CONTINUOUS
  0
LAYER
  2
_0-2__
 70
   64
 62
    7
  6
CONTINUOUS
  0
LAYER
  2
_0-9__
 70
   64
 62
    7
  6
CONTINUOUS
  0
LAYER
  2
_0-a__
 70
   64
 62
    7
  6
CONTINUOUS
  0
LAYER
  2
_f-0_
 70
   64
 62
    7
  6
CONTINUOUS
  0
LAYER
  2
_f-a__
 70
   64
 62
    7
  6
CONTINUOUS
  0
LAYER
  2
ADD_LINE
 70
   64
 62
    7
  6
CONTINUOUS
  0
ENDTAB
  0
ENDSEC
  0
SECTION
  2
BLOCKS
  0
BLOCK
  2
-000-ATN-125
 70
   64
 10
0
 20
0
 30
0
  0
LINE
  8
_a-1_
  6
CONTINUOUS
 62
    7
 10
0
 20
-62.199999999999996
 11
0
 21
62.199999999999989
  0
ARC
  8
_a-1_
  6
CONTINUOUS
 62
    7
 10
0.3000000000000113
 20
62.199999999999989
 40
0.3
 50
90
 51
180
  0
LINE
  8
_a-1_
  6
CONTINUOUS
 62
    7
 10
124.70000000000002
 20
62.499999999999943
 11
0.3000000000000113
 21
62.5
  0
ARC
  8
_a-1_
  6
CONTINUOUS
 62
    7
 10
124.70000000000002
 20
62.199999999999932
 40
0.3
 50
0
 51
90.000000000000014
  0
LINE
  8
_a-1_
  6
CONTINUOUS
 62
    7
 10
125
 20
-62.200000000000024
 11
125
 21
62.199999999999932
  0
ARC
  8
_a-1_
  6
CONTINUOUS
 62
    7
 10
124.69999999999999
 20
-62.200000000000024
 40
0.3
 50
270
 51
0
  0
LINE
  8
_a-1_
  6
CONTINUOUS
 62
    7
 10
79.442913073946613
 20
-62.500000000000078
 11
124.69999999999999
 21
-62.500000000000092
  0
ARC
  8
_a-1_
  6
CONTINUOUS
 62
    7
 10
79.442913073946613
 20
-62.80000000000009
 40
0.3
 50
90
 51
168.72513841372432
  0
LINE
  8
_a-1_
  6
CONTINUOUS
 62
    7
 10
79.148702913399802
 20
-62.741345235223115
 11
78.271502666070717
 21
-67.141349677826241
  0
ARC
  8
_a-1_
  6
CONTINUOUS
 62
    7
 10
78.565712826617471
 20
-67.200004442603159
 40
0.3
 50
168.72513841372435
 51
270
  0
LINE
  8
_a-1_
  6
CONTINUOUS
 62
    7
 10
78.565712826617471
 20
-67.500004442603171
 11
79.200000000000216
 21
-67.500004442603171
  0
ARC
  8
_a-1_
  6
CONTINUOUS
 62
    7
 10
79.200000000000216
 20
-67.800004442603182
 40
0.3
 50
353.75960486439891
 51
90
  0
ARC
  8
_a-1_
  6
CONTINUOUS
 62
    7
 10
78.08480575669455
 20
-67.67805999554551
 40
1.4218416325267724
 50
168.72513841372435
 51
353.75960486439885
  0
LINE
  8
_a-1_
  6
CONTINUOUS
 62
    7
 10
77.595796779862553
 20
-62.858654764777008
 11
76.690404906768549
 21
-67.400067373859116
  0
ARC
  8
_a-1_
  6
CONTINUOUS
 62
    7
 10
77.301586619315742
 20
-62.80000000000009
 40
0.3
 50
348.72513841372484
 51
89.999999999999943
  0
LINE
  8
_a-1_
  6
CONTINUOUS
 62
    7
 10
47.698413380684656
 20
-62.500000000000078
 11
77.301586619315742
 21
-62.500000000000078
  0
ARC
  8
_a-1_
  6
CONTINUOUS
 62
    7
 10
47.698413380684656
 20
-62.80000000000009
 40
0.3
 50
90
 51
191.27486158627565
  0
LINE
  8
_a-1_
  6
CONTINUOUS
 62
    7
 10
47.404203220137902
 20
-62.858654764777008
 11
48.309595093231906
 21
-67.400067373859116
  0
ARC
  8
_a-1_
  6
CONTINUOUS
 62
    7
 10
46.915194243305905
 20
-67.67805999554551
 40
1.4218416325267724
 50
186.24039513560112
 51
11.274861586275563
  0
ARC
  8
_a-1_
  6
CONTINUOUS
 62
    7
 10
45.800000000000239
 20
-67.800004442603182
 40
0.3
 50
90
 51
186.24039513560106
  0
LINE
  8
_a-1_
  6
CONTINUOUS
 62
    7
 10
46.434287173382927
 20
-67.500004442603171
 11
45.800000000000239
 21
-67.500004442603171
  0
ARC
  8
_a-1_
  6
CONTINUOUS
 62
    7
 10
46.434287173382927
 20
-67.200004442603159
 40
0.3
 50
270
 51
11.27486158627562
  0
LINE
  8
_a-1_
  6
CONTINUOUS
 62
    7
 10
45.851297086600596
 20
-62.741345235223115
 11
46.728497333929738
 21
-67.141349677826241
  0
ARC
  8
_a-1_
  6
CONTINUOUS
 62
    7
 10
45.557086926053842
 20
-62.80000000000009
 40
0.3
 50
11.274861586276042
 51
90
  0
LINE
  8
_a-1_
  6
CONTINUOUS
 62
    7
 10
45.557086926053842
 20
-62.500000000000078
 11
0.3000000000000113
 21
-62.500000000000064
  0
ARC
  8
_a-1_
  6
CONTINUOUS
 62
    7
 10
0.3000000000000113
 20
-62.199999999999996
 40
0.3
 50
180
 51
270
  0
LINE
  8
_a-1_
  6
CONTINUOUS
 62
    7
 10
2
 20
59.5
 11
2
 21
-59.500000000000064
  0
ARC
  8
_a-1_
  6
CONTINUOUS
 62
    7
 10
3
 20
-59.500000000000064
 40
1
 50
180
 51
270
  0
LINE
  8
_a-1_
  6
CONTINUOUS
 62
    7
 10
122
 20
-60.500000000000092
 11
3
 21
-60.500000000000064
  0
ARC
  8
_a-1_
  6
CONTINUOUS
 62
    7
 10
122
 20
-59.500000000000092
 40
1
 50
270
 51
0
  0
LINE
  8
_a-1_
  6
CONTINUOUS
 62
    7
 10
123
 20
-59.500000000000092
 11
123
 21
59.499999999999972
  0
ARC
  8
_a-1_
  6
CONTINUOUS
 62
    7
 10
122
 20
59.499999999999972
 40
1
 50
0
 51
90
  0
LINE
  8
_a-1_
  6
CONTINUOUS
 62
    7
 10
122
 20
60.499999999999943
 11
3
 21
60.5
  0
ARC
  8
_a-1_
  6
CONTINUOUS
 62
    7
 10
3
 20
59.5
 40
1
 50
90
 51
180
  0
ENDBLK
  0
ENDSEC
  0
SECTION
  2
ENTITIES
  0
LINE
  8
ADD_LINE
  6
DOT
 62
    9
 10
538.67385039458418
 20
50
 11
538.67385039458418
 21
25
  0
LINE
  8
ADD_LINE
  6
DOT
 62
    9
 10
578.67385039458418
 20
50
 11
578.67385039458418
 21
25
  0
LINE
  8
ADD_LINE
  6
DOT
 62
    9
 10
820.51077559187615
 20
50
 11
820.51077559187615
 21
25
  0
LINE
  8
ADD_LINE
  6
DOT
 62
    9
 10
60.54106559187619
 20
50
 11
60.54106559187619
 21
25
  0
TEXT
  8
_f-a__
 62
    7
 10
289.60745799323013
 20
50
 40
6
 41
0.8333333333333333
 50
0
  1
名　　称
  0
TEXT
  8
_f-a__
 62
    7
 10
548.67385039458418
 20
50
 40
6
 41
0.8333333333333333
 50
0
  1
縮　　尺
  0
TEXT
  8
_f-a__
 62
    7
 10
689.59231299323017
 20
50
 40
6
 41
0.8333333333333333
 50
0
  1
品　　番
  0
LINE
  8
ADD_LINE
  6
DOT
 62
    9
 10
60.54106559187619
 20
50
 11
820.51077559187615
 21
50
  0
LINE
  8
ADD_LINE
  6
DOT
 62
    9
 10
60.54106559187619
 20
25
 11
820.51077559187615
 21
25
  0
TEXT
  8
_0-a__
 62
    3
 10
552.17385039458418
 20
32.5
 40
10
 41
0.8
 50
0
  1
1/2
  0
LINE
  8
_0-1_
  6
CENTER1
 62
    4
 10
762.10016536502292
 20
351.08477237048669
 11
286.4217472167436
 21
351.08477237048669
  0
LINE
  8
_0-1_
  6
CENTER1
 62
    4
 10
80.407453369751806
 20
351.08477237048663
 11
224.06514850880998
 21
351.08477237048663
  0
LINE
  8
_0-1_
  6
CENTER1
 62
    4
 10
151.58736731093506
 20
432.30511020543224
 11
151.58736731093501
 21
281.88524253082494
  0
POINT
  8
_0-9__
 62
    4
 10
89.087367310935008
 20
264.58477237048663
  0
POINT
  8
_0-9__
 62
    4
 10
214.08736731093504
 20
264.58477237048663
  0
LINE
  8
_0-9__
  6
CONTINUOUS
 62
    4
 10
89.087367310935008
 20
262.58477237048663
 11
89.087367310935008
 21
286.88477237048664
  0
LINE
  8
_0-9__
  6
CONTINUOUS
 62
    4
 10
214.08736731093504
 20
262.58477237048663
 11
214.08736731093504
 21
286.88477237048664
  0
POINT
  8
_0-9__
 62
    4
 10
91.087367310935065
 20
333.72241755000732
  0
POINT
  8
_0-9__
 62
    4
 10
212.08736419677734
 20
333.72241755000732
  0
POINT
  8
_0-9__
 62
    4
 10
214.08736731093504
 20
333.72241755000732
  0
LINE
  8
_0-9__
  6
CONTINUOUS
 62
    4
 10
212.08736419677734
 20
333.72241755000732
 11
214.08736731093504
 21
333.72241755000732
  0
TEXT
  8
_0-9__
 62
    3
 10
216.45726110453739
 20
334.72241755000732
 40
10
 41
0.8
 50
0
  1
2
  0
LINE
  8
_0-1_
  6
CENTER1
 62
    4
 10
286.4217472167436
 20
351.08477237048663
 11
762.10016536502292
 21
351.08477237048663
  0
LINE
  8
_0-9__
  6
CONTINUOUS
 62
    4
 10
89.087367310935008
 20
264.58477237048663
 11
214.08736731093504
 21
264.58477237048663
  0
TEXT
  8
_0-9__
 62
    3
 10
140.58736731093501
 20
265.58477237048663
 40
10
 41
0.8
 50
0
  1
□125
  0
LINE
  8
_0-2__
  6
CONTINUOUS
 62
    7
 10
479.13338819358512
 20
288.58477237048663
 11
300.40918831093506
 21
288.58477237048663
  0
LINE
  8
_0-2__
  6
CONTINUOUS
 62
    7
 10
479.13338819358512
 20
413.58477237048663
 11
300.40918831093506
 21
413.58477237048663
  0
LINE
  8
_0-2__
  6
CONTINUOUS
 62
    7
 10
680.40918831093506
 20
288.58477237048663
 11
501.68498842828501
 21
288.58477237048663
  0
LINE
  8
_0-2__
  6
CONTINUOUS
 62
    7
 10
680.40918831093506
 20
413.58477237048663
 11
501.68498842828501
 21
413.58477237048663
  0
LINE
  8
_0-2__
  6
CONTINUOUS
 62
    7
 10
680.40918831093506
 20
411.08477237048663
 11
755.40918831093506
 21
411.08477237048663
  0
LINE
  8
_0-2__
  6
CONTINUOUS
 62
    7
 10
680.40918831093506
 20
291.08477237048663
 11
755.40918831093506
 21
291.08477237048663
  0
LINE
  8
_0-2__
  6
CONTINUOUS
 62
    7
 10
755.40918831093506
 20
411.08477237048663
 11
755.40918831093506
 21
291.08477237048663
  0
LINE
  8
_0-9__
  6
CONTINUOUS
 62
    4
 10
91.087367310935065
 20
333.72241755000732
 11
212.08736419677734
 21
333.72241755000732
  0
TEXT
  8
_0-9__
 62
    3
 10
145.0873657538562
 20
334.72241755000732
 40
10
 41
0.8
 50
0
  1
121
  0
INSERT
  2
-000-ATN-125
  8
_0-1_
 10
214.08736731093521
 20
351.08477237048658
 41
1
 42
1
 50
180
  0
POINT
  8
_0-9__
 62
    4
 10
238.98846669251799
 20
288.58477237048658
  0
POINT
  8
_0-9__
 62
    4
 10
238.98846669251799
 20
420.18467399855888
  0
LINE
  8
_0-9__
  6
CONTINUOUS
 62
    4
 10
240.98846669251799
 20
288.58477237048658
 11
215.7873673109352
 21
288.58477237048658
  0
LINE
  8
_0-9__
  6
CONTINUOUS
 62
    4
 10
240.98846669251799
 20
420.18467399855888
 11
169.1721730676293
 21
420.18467399855888
  0
LINE
  8
_0-9__
  6
CONTINUOUS
 62
    4
 10
238.98846669251799
 20
288.58477237048658
 11
238.98846669251799
 21
420.18467399855888
  0
TEXT
  8
_0-9__
 62
    3
 10
237.98846669251799
 20
343.38472318452273
 40
10
 41
0.8
 50
90
  1
131.6
  0
POINT
  8
_0-9__
 62
    4
 10
134.58736731093501
 20
444.18467399855888
  0
POINT
  8
_0-9__
 62
    4
 10
168.58736731093498
 20
444.18467399855888
  0
LINE
  8
_0-9__
  6
CONTINUOUS
 62
    4
 10
134.58736731093501
 20
446.18467399855888
 11
134.58736731093501
 21
420.88477681308979
  0
LINE
  8
_0-9__
  6
CONTINUOUS
 62
    4
 10
168.58736731093498
 20
446.18467399855888
 11
168.58736731093498
 21
420.88477681308979
  0
LINE
  8
_0-9__
  6
CONTINUOUS
 62
    4
 10
134.58736731093501
 20
444.18467399855888
 11
168.58736731093498
 21
444.18467399855888
  0
TEXT
  8
_0-9__
 62
    3
 10
147.33736731093501
 20
445.18467399855888
 40
10
 41
0.8
 50
0
  1
34
  0
POINT
  8
_0-9__
 62
    4
 10
300.40918831093506
 20
444.18467399400868
  0
LINE
  8
_0-9__
  6
CONTINUOUS
 62
    4
 10
300.40918831093506
 20
446.18467399400868
 11
300.40918831093506
 21
422.18467399855888
  0
POINT
  8
_0-9__
 62
    4
 10
755.40918831093506
 20
444.18467399400868
  0
LINE
  8
_0-2__
  6
CONTINUOUS
 62
    7
 10
300.40918831093506
 20
420.18467399855888
 11
300.40918831093506
 21
288.58477237048663
  0
POINT
  8
_0-9__
 62
    4
 10
680.40918831093506
 20
444.18467399400868
  0
LINE
  8
_0-9__
  6
CONTINUOUS
 62
    4
 10
680.40918831093506
 20
446.18467399400868
 11
680.40918831093506
 21
422.18467399855888
  0
LINE
  8
_0-9__
  6
CONTINUOUS
 62
    4
 10
680.40918831093506
 20
444.18467399400868
 11
755.40918831093506
 21
444.18467399400868
  0
TEXT
  8
_0-9__
 62
    3
 10
713.65918831093506
 20
445.18467399400868
 40
10
 41
0.8
 50
0
  1
75
  0
LINE
  8
_0-9__
  6
CONTINUOUS
 62
    4
 10
300.40918831093506
 20
444.18467399400868
 11
680.40918831093506
 21
444.18467399400868
  0
LINE
  8
_0-2__
  6
CONTINUOUS
 62
    7
 10
680.40918831093506
 20
420.18467399855888
 11
680.40918831093506
 21
288.58477237048663
  0
TEXT
  8
_0-9__
 62
    3
 10
454.65918831093506
 20
445.18467399400868
 40
10
 41
0.8
 50
0
  1
1000・3000・4000
  0
LINE
  8
_0-2__
  6
CONTINUOUS
 62
    7
 10
479.13338819358512
 20
420.18467399855888
 11
300.40918831093506
 21
420.18467399855888
  0
LINE
  8
_0-2__
  6
CONTINUOUS
 62
    7
 10
680.40918831093506
 20
420.18467399855888
 11
501.68498842828501
 21
420.18467399855888
  0
LINE
  8
_0-9__
  6
CONTINUOUS
 62
    4
 10
755.40918831093506
 20
446.18467399400868
 11
755.40918831093506
 21
413.08477237048663
  0
LINE
  8
_0-1_
  6
CONTINUOUS
 62
    7
 10
479.13338819358512
 20
418.58477681355885
 11
300.40918831093506
 21
418.58477681355885
  0
LINE
  8
_0-1_
  6
CONTINUOUS
 62
    7
 10
680.40918831093506
 20
418.58477681355885
 11
501.68498842828501
 21
418.58477681355885
  0
TEXT
  8
_0-a__
 62
    3
 10
214.60745799323013
 20
32.5
 40
10
 41
0.8
 50
0
  1
アルミたてとい新型　角バンドレスタイプ
  0
TEXT
  8
_0-a__
 62
    3
 10
686.34231299323017
 20
32.5
 40
10
 41
0.8
 50
0
  1
KTN125
  0
ENDSEC
  0
EOF
