  0
SECTION
  2
HEADER
  9
$ACADVER
  1
AC1009
  9
$INSBASE
 10
0
 20
0
 30
0
  9
$EXTMIN
 10
0
 20
0
  9
$EXTMAX
 10
420
 20
297
  9
$LIMMIN
 10
0
 20
0
  9
$LIMMAX
 10
420
 20
297
  9
$LTSCALE
 40
1
  0
ENDSEC
  0
SECTION
  2
TABLES
  0
TABLE
  2
LTYPE
 70
     9
  0
LTYPE
  2
CONTINUOUS
 70
    64
  3
実線
 72
    65
 73
     0
 40
0.0
  0
LTYPE
  2
DASHED1
 70
    64
  3
--  --  --  --  --  --  --  --  
 72
    65
 73
     2
 40
2.5
 49
1.25
 49
-1.25
  0
LTYPE
  2
DASHED2
 70
    64
  3
----    ----    ----    ----    
 72
    65
 73
     2
 40
5.0
 49
2.5
 49
-2.5
  0
LTYPE
  2
DASHED3
 70
    64
  3
------  ------  ------  ------  
 72
    65
 73
     2
 40
5.0
 49
3.75
 49
-1.25
  0
LTYPE
  2
CENTER1
 70
    64
  3
----- - ----- - ----- - ----- - 
 72
    65
 73
     4
 40
10.0
 49
6.25
 49
-1.25
 49
1.25
 49
-1.25
  0
LTYPE
  2
CENTER2
 70
    64
  3
----------  --  ----------  --  
 72
    65
 73
     4
 40
20.0
 49
12.5
 49
-2.5
 49
2.5
 49
-2.5
  0
LTYPE
  2
PHANTOM1
 70
    64
  3
--- - - --- - - --- - - --- - - 
 72
    65
 73
     6
 40
10.0
 49
3.25
 49
-1.25
 49
1.25
 49
-1.25
 49
1.25
 49
-1.25
  0
LTYPE
  2
PHANTOM2
 70
    64
  3
--------  -  -  --------  -  -  
 72
    65
 73
     6
 40
20.0
 49
10.0
 49
-2.5
 49
1.25
 49
-2.5
 49
1.25
 49
-2.5
  0
LTYPE
  2
DOT
 70
    64
  3
-   -   -   -   -   -   -   -   
 72
    65
 73
     2
 40
2.5
 49
0.625
 49
-1.875
  0
LTYPE
  2
DUMMY
 70
    64
  3
ダミー
 72
    65
 73
     0
 40
0.0
  0
LTYPE
  2
RAND1
 70
    64
  3
ランダム線1
 72
    65
 73
     4
 40
10.0
 49
1.0
 49
-2.0
 49
3.0
 49
-4.0
  0
LTYPE
  2
RAND2
 70
    64
  3
ランダム線2
 72
    65
 73
     4
 40
14.0
 49
2.0
 49
-3.0
 49
4.0
 49
-5.0
  0
LTYPE
  2
RAND3
 70
    64
  3
ランダム線3
 72
    65
 73
     4
 40
18.0
 49
3.0
 49
-4.0
 49
5.0
 49
-6.0
  0
LTYPE
  2
RAND4
 70
    64
  3
ランダム線4
 72
    65
 73
     4
 40
22.0
 49
4.0
 49
-5.0
 49
6.0
 49
-7.0
  0
LTYPE
  2
RAND5
 70
    64
  3
ランダム線5
 72
    65
 73
     4
 40
26.0
 49
5.0
 49
-6.0
 49
7.0
 49
-8.0
  0
LTYPE
  2
LONG1
 70
    64
  3
----------  --  ----------  --  
 72
    65
 73
     4
 40
40.0
 49
32.5
 49
-2.5
 49
2.5
 49
-2.5
  0
LTYPE
  2
LONG2
 70
    64
  3
--------  -  -  --------  -  -  
 72
    65
 73
     6
 40
40.0
 49
30.0
 49
-2.5
 49
1.25
 49
-2.5
 49
1.25
 49
-2.5
  0
LTYPE
  2
LONG3
 70
    64
  3
+++++++++++++++..+++++++++++++++
 72
    65
 73
     2
 40
40.0
 49
37.5
 49
-2.5
  0
LTYPE
  2
LONG4
 70
    64
  3
+++++++++++++++..+++++++++++++++
 72
    65
 73
     2
 40
80.0
 49
75.0
 49
-5.0
  0
LTYPE
  2
LONG5
 70
    64
  3
----------  --  ----------  --  
 72
    65
 73
     4
 40
60.0
 49
37.5
 49
-7.5
 49
7.5
 49
-7.5
  0
LTYPE
  2
dashed
 70
   64
  3
-------   -------------   ------
 72
   65
 73
    2
 40
7.5
 49
6
 49
-1.5
  0
LTYPE
  2
dashed_spaced
 70
   64
  3
----        --------        ----
 72
   65
 73
    2
 40
12
 49
6
 49
-6
  0
LTYPE
  2
long_dashed_dotted
 70
   64
  3
------------- --- --------------
 72
   65
 73
    4
 40
15.25
 49
12
 49
-1.5
 49
0.25
 49
-1.5
  0
LTYPE
  2
long_dashed_double-dotted
 70
   64
  3
----------- --- --- ------------
 72
   65
 73
    6
 40
17
 49
12
 49
-1.5
 49
0.25
 49
-1.5
 49
0.25
 49
-1.5
  0
LTYPE
  2
long_dashed_triplicate-dotted
 70
   64
  3
--------- --- --- --- ----------
 72
   65
 73
    8
 40
18.75
 49
12
 49
-1.5
 49
0.25
 49
-1.5
 49
0.25
 49
-1.5
 49
0.25
 49
-1.5
  0
LTYPE
  2
dotted
 70
   64
  3
   -       -       -       -    
 72
   65
 73
    2
 40
1.75
 49
0.25
 49
-1.5
  0
LTYPE
  2
chain
 70
   64
  3
-------------- -- --------------
 72
   65
 73
    4
 40
18.5
 49
12
 49
-1.5
 49
3.5
 49
-1.5
  0
LTYPE
  2
chain_double_dash
 70
   64
  3
------------ -- -- -------------
 72
   65
 73
    6
 40
23.5
 49
12
 49
-1.5
 49
3.5
 49
-1.5
 49
3.5
 49
-1.5
  0
LTYPE
  2
dashed_dotted
 70
   64
  3
-----------     -     ----------
 72
   65
 73
    4
 40
9.25
 49
6
 49
-1.5
 49
0.25
 49
-1.5
  0
LTYPE
  2
double-dashed_dotted
 70
   64
  3
------   -----------   -   -----
 72
   65
 73
    6
 40
16.75
 49
6
 49
-1.5
 49
6
 49
-1.5
 49
0.25
 49
-1.5
  0
LTYPE
  2
dashed_double-dotted
 70
   64
  3
---------    -    -    ---------
 72
   65
 73
    6
 40
11
 49
6
 49
-1.5
 49
0.25
 49
-1.5
 49
0.25
 49
-1.5
  0
LTYPE
  2
double-dashed_double-dotted
 70
   64
  3
-----   ---------   -   -   ----
 72
   65
 73
    8
 40
18.5
 49
6
 49
-1.5
 49
6
 49
-1.5
 49
0.25
 49
-1.5
 49
0.25
 49
-1.5
  0
LTYPE
  2
dashed_triplicate-dotted
 70
   64
  3
-------    -    -    -    ------
 72
   65
 73
    8
 40
12.75
 49
6
 49
-1.5
 49
0.25
 49
-1.5
 49
0.25
 49
-1.5
 49
0.25
 49
-1.5
  0
LTYPE
  2
double-dashed_triplicate-dotted
 70
   64
  3
-----  ---------  -  -  -  -----
 72
   65
 73
   10
 40
20.25
 49
6
 49
-1.5
 49
6
 49
-1.5
 49
0.25
 49
-1.5
 49
0.25
 49
-1.5
 49
0.25
 49
-1.5
  0
LTYPE
  2
undefined
 70
   64
  3
--------------------------------
 72
   65
 73
    0
 40
0
  0
ENDTAB
  0
TABLE
  2
STYLE
  5
3
100
AcDbSymbolTable
 70
     1
  0
STYLE
  5
10
100
AcDbSymbolTableRecord
100
AcDbTextStyleTableRecord
  2
STANDARD
 70
     0
 40
0.0
 41
1.0
 50
0.0
 71
     0
 42
0.2
  3
txt
  4
bigfont.shx
  0
STYLE
  5
26
100
AcDbSymbolTableRecord
100
AcDbTextStyleTableRecord
  2
TATEGAKI
 70
    68
 40
0.0
 41
1.0
 50
0.0
 71
     0
 42
1.0
  3
txt
  4
bigfont.shx
  0
ENDTAB
  0
TABLE
  2
LAYER
 70
    6
  0
LAYER
  2
_0-1_一般図
 70
   64
 62
    7
  6
CONTINUOUS
  0
LAYER
  2
_0-9_
 70
   64
 62
    7
  6
CONTINUOUS
  0
LAYER
  2
_0-a_
 70
   64
 62
    7
  6
CONTINUOUS
  0
LAYER
  2
_f-1_一般図
 70
   64
 62
    7
  6
CONTINUOUS
  0
LAYER
  2
_f-a_
 70
   64
 62
    7
  6
CONTINUOUS
  0
LAYER
  2
ADD_LINE
 70
   64
 62
    7
  6
CONTINUOUS
  0
ENDTAB
  0
ENDSEC
  0
SECTION
  2
BLOCKS
  0
ENDSEC
  0
SECTION
  2
ENTITIES
  0
LINE
  8
ADD_LINE
  6
DOT
 62
    9
 10
269.33692519729209
 20
25
 11
269.33692519729209
 21
12.5
  0
LINE
  8
ADD_LINE
  6
DOT
 62
    9
 10
289.33692519729209
 20
25
 11
289.33692519729209
 21
12.5
  0
LINE
  8
ADD_LINE
  6
DOT
 62
    9
 10
410.25538779593808
 20
25
 11
410.25538779593808
 21
12.5
  0
TEXT
  8
_0-a_
 62
    3
 10
276.08692519729209
 20
16.25
 40
5
 41
0.8
 50
0
  1
1/1
  0
TEXT
  8
_0-a_
 62
    3
 10
343.17115649661508
 20
16.25
 40
5
 41
0.8
 50
0
  1
E60-90
  0
LINE
  8
ADD_LINE
  6
DOT
 62
    9
 10
30.270532795938124
 20
25.000000000000028
 11
30.270532795938124
 21
12.5
  0
TEXT
  8
_f-a_
 62
    7
 10
144.80372899661506
 20
25.000000000000028
 40
3
 41
0.8333333333333333
 50
0
  1
名　　称
  0
LINE
  8
ADD_LINE
  6
DOT
 62
    9
 10
30.270532795938124
 20
25
 11
410.25538779593808
 21
25
  0
LINE
  8
ADD_LINE
  6
DOT
 62
    9
 10
30.270532795938124
 20
12.5
 11
410.25538779593808
 21
12.5
  0
TEXT
  8
_f-a_
 62
    7
 10
274.33692519729209
 20
25
 40
3
 41
0.8333333333333333
 50
0
  1
縮　　尺
  0
TEXT
  8
_f-a_
 62
    7
 10
344.79615649661508
 20
25
 40
3
 41
0.8333333333333333
 50
0
  1
品　　番
  0
TEXT
  8
_0-a_
 62
    3
 10
136.55372897562847
 20
16.250000000000028
 40
5
 41
0.8
 50
0
  1
９０°エルボ
  0
POINT
  8
_0-9_
 62
    4
 10
133.00000000000057
 20
105.57049977183229
  0
POINT
  8
_0-9_
 62
    4
 10
133.00000000000057
 20
225.57049977183229
  0
LINE
  8
_0-9_
  6
CONTINUOUS
 62
    4
 10
132.00000000000057
 20
105.57049977183229
 11
144.00000000000057
 21
105.57049977183229
  0
LINE
  8
_0-9_
  6
CONTINUOUS
 62
    4
 10
132.00000000000057
 20
225.57049977183229
 11
144.00000000000057
 21
225.57049977183229
  0
LINE
  8
_1-9_
  6
CONTINUOUS
 62
    4
 10
133.00000000000057
 20
105.57049977183229
 11
133.00000000000057
 21
225.57049977183229
  0
TEXT
  8
_1-9_
 62
    3
 10
132.50000000000057
 20
162.32049977183229
 40
5
 41
0.8
 50
90
  1
120
  0
POINT
  8
_0-9_
 62
    4
 10
144.76963069120433
 20
93.572711226373372
  0
POINT
  8
_0-9_
 62
    4
 10
264.74751614580111
 20
91.269018138410644
  0
LINE
  8
_0-9_
  6
CONTINUOUS
 62
    4
 10
144.75043324880463
 20
92.572895514251741
 11
144.9808025576009
 21
104.57068405971147
  0
LINE
  8
_0-9_
  6
CONTINUOUS
 62
    4
 10
264.72831870340144
 20
90.269202426288999
 11
264.98748417579719
 21
103.76671453993036
  0
LINE
  8
_1-9_
  6
CONTINUOUS
 62
    4
 10
144.76963069120433
 20
93.572711226373372
 11
264.74751614580111
 21
91.269018138410644
  0
TEXT
  8
_1-9_
 62
    3
 10
201.5187710753072
 20
92.98316422625183
 40
5
 41
0.8
 50
-1.1000000000000234
  1
120
  0
POINT
  8
_0-9_
 62
    4
 10
305.73996034278849
 20
90.481923000023372
  0
LINE
  8
_0-9_
  6
CONTINUOUS
 62
    4
 10
305.72076290038882
 20
89.482107287901727
 11
305.99432645458438
 21
103.72948118563433
  0
LINE
  8
_1-9_
  6
CONTINUOUS
 62
    4
 10
264.74751614580111
 20
91.269018138410644
 11
305.73996034278849
 21
90.481923000023372
  0
TEXT
  8
_1-9_
 62
    3
 10
283.12872857723613
 20
91.416172990377163
 40
5
 41
0.8
 50
-1.0999999999999792
  1
41
  0
TEXT
  8
_0-9_
 62
    3
 10
170.62500000000003
 20
246.07049977183229
 40
5
 41
0.8
 50
0
  1
φ60
  0
LINE
  8
_0-9_
  6
CONTINUOUS
 62
    4
 10
145.00000000000003
 20
245.57049977183229
 11
205.00000000000003
 21
245.57049977183229
  0
LINE
  8
_0-9_
  6
CONTINUOUS
 62
    4
 10
205.00000000000003
 20
246.57049977183229
 11
205.00000000000003
 21
226.57049977183229
  0
LINE
  8
_0-9_
  6
CONTINUOUS
 62
    4
 10
145.00000000000003
 20
246.57049977183229
 11
145.00000000000003
 21
226.57049977183229
  0
POINT
  8
_0-9_
 62
    4
 10
205.00000000000003
 20
245.57049977183229
  0
POINT
  8
_0-9_
 62
    4
 10
145.00000000000003
 20
245.57049977183229
  0
POINT
  8
_0-9_
 62
    4
 10
146.30000000000007
 20
237.57049977183229
  0
POINT
  8
_0-9_
 62
    4
 10
203.69999999999999
 20
237.57049977183229
  0
LINE
  8
_0-9_
  6
CONTINUOUS
 62
    4
 10
146.30000000000007
 20
238.57049977183229
 11
146.30000000000007
 21
226.57049977183229
  0
LINE
  8
_0-9_
  6
CONTINUOUS
 62
    4
 10
203.69999999999999
 20
238.57049977183229
 11
203.69999999999999
 21
226.57049977183226
  0
LINE
  8
_0-9_
  6
CONTINUOUS
 62
    4
 10
146.30000000000007
 20
237.57049977183229
 11
203.69999999999999
 21
237.57049977183229
  0
TEXT
  8
_0-9_
 62
    3
 10
168.37500000000003
 20
238.07049977183229
 40
5
 41
0.8
 50
0
  1
φ57.4
  0
LINE
  8
_0-1_一般図
  6
CONTINUOUS
 62
    7
 10
205.00000000000003
 20
164.42950022816714
 11
145.00000000000003
 21
105.57049977183229
  0
LINE
  8
_0-1_一般図
  6
CONTINUOUS
 62
    7
 10
205.00000000000003
 20
164.42950022816714
 11
260.86287591879091
 21
163.35687821419992
  0
ARC
  8
_0-1_一般図
  6
CONTINUOUS
 62
    7
 10
260.67090149479395
 20
153.35872109298347
 40
10
 50
57.111669382948378
 51
88.899999999999991
  0
ARC
  8
_0-1_一般図
  6
CONTINUOUS
 62
    7
 10
259.90300379880637
 20
113.3660926081177
 40
10
 50
268.89999999999998
 51
300.68833061705163
  0
LINE
  8
_0-1_一般図
  6
CONTINUOUS
 62
    7
 10
145.00000000000003
 20
105.57049977183229
 11
259.71102937480953
 21
103.36793548690127
  0
LINE
  8
_0-1_一般図
  6
CONTINUOUS
 62
    7
 10
301.34861086457238
 20
161.07923590770085
 11
266.10093583497917
 21
161.75602584298571
  0
ARC
  8
_0-1_一般図
  6
CONTINUOUS
 62
    7
 10
301.15663644057554
 20
151.0810787864844
 40
10
 50
80.369234390051872
 51
88.900000000000006
  0
LINE
  8
_0-1_一般図
  6
CONTINUOUS
 62
    7
 10
300.25435664779013
 20
104.08974031676712
 11
265.00668161819692
 21
104.76653025205201
  0
ARC
  8
_0-1_一般図
  6
CONTINUOUS
 62
    7
 10
300.44633107178697
 20
114.08789743798357
 40
10
 50
268.89999999999998
 51
277.43076560994814
  0
LINE
  8
_0-1_一般図
  6
CONTINUOUS
 62
    7
 10
145.00000000000003
 20
105.57049977183229
 11
145.00000000000003
 21
225.57049977183226
  0
LINE
  8
_0-1_一般図
  6
CONTINUOUS
 62
    7
 10
205.00000000000003
 20
164.42950022816714
 11
205.00000000000003
 21
225.57049977183229
  0
LINE
  8
_0-1_一般図
  6
CONTINUOUS
 62
    7
 10
145.00000000000003
 20
225.57049977183229
 11
205.00000000000003
 21
225.57049977183229
  0
LINE
  8
_0-1_一般図
  6
CENTER1
 62
    4
 10
175.00000000000003
 20
134.99999999999972
 11
175.00000000000003
 21
231.53691975367929
  0
LINE
  8
_0-1_一般図
  6
CONTINUOUS
 62
    7
 10
302.82961808311597
 20
160.94014225233767
 11
307.07898195016685
 21
160.2190689205072
  0
LINE
  8
_0-1_一般図
  6
CONTINUOUS
 62
    7
 10
307.07898195016685
 20
160.2190689205072
 11
306.01352389698411
 21
104.72929689775597
  0
LINE
  8
_0-1_一般図
  6
CONTINUOUS
 62
    7
 10
301.73961174090448
 20
104.17187882611688
 11
306.01352389698411
 21
104.72929689775597
  0
LINE
  8
_0-1_一般図
  6
CENTER1
 62
    4
 10
175
 20
134.99999999999972
 11
311.22523660590639
 21
132.3843418327796
  0
LINE
  8
_0-1_一般図
  6
CONTINUOUS
 62
    5
 10
266.08547960766725
 20
160.95105512892673
 11
265.0190921949029
 21
105.41288143409162
  0
LINE
  8
_0-1_一般図
  6
CONTINUOUS
 62
    5
 10
302.07360529571406
 20
159.98704716906644
 11
301.017394655271
 21
104.97888662148645
  0
TEXT
  8
_0-9_
 62
    3
 10
216.16297548710128
 20
183.08476533518783
 40
5
 41
0.8
 50
-45.549999999999997
  1
91.1ﾟ
  0
ARC
  8
_0-9_
  6
CONTINUOUS
 62
    4
 10
205.00000000000003
 20
164.42950022816714
 40
20.532853775435395
 50
358.90000000000003
 51
90
  0
POINT
  8
_0-9_
 62
    4
 10
225.52906981937656
 20
164.03532195051199
  0
POINT
  8
_0-9_
 62
    4
 10
205.00000000000003
 20
184.96235400360254
  0
ENDSEC
  0
EOF
