  0
SECTION
  2
HEADER
  9
$ACADVER
  1
AC1009
  9
$INSBASE
 10
0
 20
0
 30
0
  9
$EXTMIN
 10
0
 20
0
  9
$EXTMAX
 10
420
 20
297
  9
$LIMMIN
 10
0
 20
0
  9
$LIMMAX
 10
420
 20
297
  9
$LTSCALE
 40
1
  0
ENDSEC
  0
SECTION
  2
TABLES
  0
TABLE
  2
LTYPE
 70
     9
  0
LTYPE
  2
CONTINUOUS
 70
    64
  3
実線
 72
    65
 73
     0
 40
0.0
  0
LTYPE
  2
DASHED1
 70
    64
  3
--  --  --  --  --  --  --  --  
 72
    65
 73
     2
 40
2.5
 49
1.25
 49
-1.25
  0
LTYPE
  2
DASHED2
 70
    64
  3
----    ----    ----    ----    
 72
    65
 73
     2
 40
5.0
 49
2.5
 49
-2.5
  0
LTYPE
  2
DASHED3
 70
    64
  3
------  ------  ------  ------  
 72
    65
 73
     2
 40
5.0
 49
3.75
 49
-1.25
  0
LTYPE
  2
CENTER1
 70
    64
  3
----- - ----- - ----- - ----- - 
 72
    65
 73
     4
 40
10.0
 49
6.25
 49
-1.25
 49
1.25
 49
-1.25
  0
LTYPE
  2
CENTER2
 70
    64
  3
----------  --  ----------  --  
 72
    65
 73
     4
 40
20.0
 49
12.5
 49
-2.5
 49
2.5
 49
-2.5
  0
LTYPE
  2
PHANTOM1
 70
    64
  3
--- - - --- - - --- - - --- - - 
 72
    65
 73
     6
 40
10.0
 49
3.25
 49
-1.25
 49
1.25
 49
-1.25
 49
1.25
 49
-1.25
  0
LTYPE
  2
PHANTOM2
 70
    64
  3
--------  -  -  --------  -  -  
 72
    65
 73
     6
 40
20.0
 49
10.0
 49
-2.5
 49
1.25
 49
-2.5
 49
1.25
 49
-2.5
  0
LTYPE
  2
DOT
 70
    64
  3
-   -   -   -   -   -   -   -   
 72
    65
 73
     2
 40
2.5
 49
0.625
 49
-1.875
  0
LTYPE
  2
DUMMY
 70
    64
  3
ダミー
 72
    65
 73
     0
 40
0.0
  0
LTYPE
  2
RAND1
 70
    64
  3
ランダム線1
 72
    65
 73
     4
 40
10.0
 49
1.0
 49
-2.0
 49
3.0
 49
-4.0
  0
LTYPE
  2
RAND2
 70
    64
  3
ランダム線2
 72
    65
 73
     4
 40
14.0
 49
2.0
 49
-3.0
 49
4.0
 49
-5.0
  0
LTYPE
  2
RAND3
 70
    64
  3
ランダム線3
 72
    65
 73
     4
 40
18.0
 49
3.0
 49
-4.0
 49
5.0
 49
-6.0
  0
LTYPE
  2
RAND4
 70
    64
  3
ランダム線4
 72
    65
 73
     4
 40
22.0
 49
4.0
 49
-5.0
 49
6.0
 49
-7.0
  0
LTYPE
  2
RAND5
 70
    64
  3
ランダム線5
 72
    65
 73
     4
 40
26.0
 49
5.0
 49
-6.0
 49
7.0
 49
-8.0
  0
LTYPE
  2
LONG1
 70
    64
  3
----------  --  ----------  --  
 72
    65
 73
     4
 40
40.0
 49
32.5
 49
-2.5
 49
2.5
 49
-2.5
  0
LTYPE
  2
LONG2
 70
    64
  3
--------  -  -  --------  -  -  
 72
    65
 73
     6
 40
40.0
 49
30.0
 49
-2.5
 49
1.25
 49
-2.5
 49
1.25
 49
-2.5
  0
LTYPE
  2
LONG3
 70
    64
  3
+++++++++++++++..+++++++++++++++
 72
    65
 73
     2
 40
40.0
 49
37.5
 49
-2.5
  0
LTYPE
  2
LONG4
 70
    64
  3
+++++++++++++++..+++++++++++++++
 72
    65
 73
     2
 40
80.0
 49
75.0
 49
-5.0
  0
LTYPE
  2
LONG5
 70
    64
  3
----------  --  ----------  --  
 72
    65
 73
     4
 40
60.0
 49
37.5
 49
-7.5
 49
7.5
 49
-7.5
  0
LTYPE
  2
dashed
 70
   64
  3
-------   -------------   ------
 72
   65
 73
    2
 40
7.5
 49
6
 49
-1.5
  0
LTYPE
  2
dashed_spaced
 70
   64
  3
----        --------        ----
 72
   65
 73
    2
 40
12
 49
6
 49
-6
  0
LTYPE
  2
long_dashed_dotted
 70
   64
  3
------------- --- --------------
 72
   65
 73
    4
 40
15.25
 49
12
 49
-1.5
 49
0.25
 49
-1.5
  0
LTYPE
  2
long_dashed_double-dotted
 70
   64
  3
----------- --- --- ------------
 72
   65
 73
    6
 40
17
 49
12
 49
-1.5
 49
0.25
 49
-1.5
 49
0.25
 49
-1.5
  0
LTYPE
  2
long_dashed_triplicate-dotted
 70
   64
  3
--------- --- --- --- ----------
 72
   65
 73
    8
 40
18.75
 49
12
 49
-1.5
 49
0.25
 49
-1.5
 49
0.25
 49
-1.5
 49
0.25
 49
-1.5
  0
LTYPE
  2
dotted
 70
   64
  3
   -       -       -       -    
 72
   65
 73
    2
 40
1.75
 49
0.25
 49
-1.5
  0
LTYPE
  2
chain
 70
   64
  3
-------------- -- --------------
 72
   65
 73
    4
 40
18.5
 49
12
 49
-1.5
 49
3.5
 49
-1.5
  0
LTYPE
  2
chain_double_dash
 70
   64
  3
------------ -- -- -------------
 72
   65
 73
    6
 40
23.5
 49
12
 49
-1.5
 49
3.5
 49
-1.5
 49
3.5
 49
-1.5
  0
LTYPE
  2
dashed_dotted
 70
   64
  3
-----------     -     ----------
 72
   65
 73
    4
 40
9.25
 49
6
 49
-1.5
 49
0.25
 49
-1.5
  0
LTYPE
  2
double-dashed_dotted
 70
   64
  3
------   -----------   -   -----
 72
   65
 73
    6
 40
16.75
 49
6
 49
-1.5
 49
6
 49
-1.5
 49
0.25
 49
-1.5
  0
LTYPE
  2
dashed_double-dotted
 70
   64
  3
---------    -    -    ---------
 72
   65
 73
    6
 40
11
 49
6
 49
-1.5
 49
0.25
 49
-1.5
 49
0.25
 49
-1.5
  0
LTYPE
  2
double-dashed_double-dotted
 70
   64
  3
-----   ---------   -   -   ----
 72
   65
 73
    8
 40
18.5
 49
6
 49
-1.5
 49
6
 49
-1.5
 49
0.25
 49
-1.5
 49
0.25
 49
-1.5
  0
LTYPE
  2
dashed_triplicate-dotted
 70
   64
  3
-------    -    -    -    ------
 72
   65
 73
    8
 40
12.75
 49
6
 49
-1.5
 49
0.25
 49
-1.5
 49
0.25
 49
-1.5
 49
0.25
 49
-1.5
  0
LTYPE
  2
double-dashed_triplicate-dotted
 70
   64
  3
-----  ---------  -  -  -  -----
 72
   65
 73
   10
 40
20.25
 49
6
 49
-1.5
 49
6
 49
-1.5
 49
0.25
 49
-1.5
 49
0.25
 49
-1.5
 49
0.25
 49
-1.5
  0
LTYPE
  2
undefined
 70
   64
  3
--------------------------------
 72
   65
 73
    0
 40
0
  0
ENDTAB
  0
TABLE
  2
STYLE
  5
3
100
AcDbSymbolTable
 70
     1
  0
STYLE
  5
10
100
AcDbSymbolTableRecord
100
AcDbTextStyleTableRecord
  2
STANDARD
 70
     0
 40
0.0
 41
1.0
 50
0.0
 71
     0
 42
0.2
  3
txt
  4
bigfont.shx
  0
STYLE
  5
26
100
AcDbSymbolTableRecord
100
AcDbTextStyleTableRecord
  2
TATEGAKI
 70
    68
 40
0.0
 41
1.0
 50
0.0
 71
     0
 42
1.0
  3
txt
  4
bigfont.shx
  0
ENDTAB
  0
TABLE
  2
LAYER
 70
    6
  0
LAYER
  2
_0-1_一般図
 70
   64
 62
    7
  6
CONTINUOUS
  0
LAYER
  2
_0-9_
 70
   64
 62
    7
  6
CONTINUOUS
  0
LAYER
  2
_0-a_
 70
   64
 62
    7
  6
CONTINUOUS
  0
LAYER
  2
_f-1_一般図
 70
   64
 62
    7
  6
CONTINUOUS
  0
LAYER
  2
_f-a_
 70
   64
 62
    7
  6
CONTINUOUS
  0
LAYER
  2
ADD_LINE
 70
   64
 62
    7
  6
CONTINUOUS
  0
ENDTAB
  0
ENDSEC
  0
SECTION
  2
BLOCKS
  0
ENDSEC
  0
SECTION
  2
ENTITIES
  0
LINE
  8
ADD_LINE
  6
DOT
 62
    9
 10
269.33692519729209
 20
25
 11
269.33692519729209
 21
12.5
  0
LINE
  8
ADD_LINE
  6
DOT
 62
    9
 10
289.33692519729209
 20
25
 11
289.33692519729209
 21
12.5
  0
LINE
  8
ADD_LINE
  6
DOT
 62
    9
 10
410.25538779593808
 20
25
 11
410.25538779593808
 21
12.5
  0
LINE
  8
ADD_LINE
  6
DOT
 62
    9
 10
30.270532795938095
 20
25
 11
30.270532795938095
 21
12.5
  0
TEXT
  8
_f-a_
 62
    7
 10
144.80372899661506
 20
25
 40
3
 41
0.8333333333333333
 50
0
  1
名　　称
  0
TEXT
  8
_f-a_
 62
    7
 10
274.33692519729209
 20
25
 40
3
 41
0.8333333333333333
 50
0
  1
縮　　尺
  0
TEXT
  8
_f-a_
 62
    7
 10
344.79615649661508
 20
25
 40
3
 41
0.8333333333333333
 50
0
  1
品　　番
  0
LINE
  8
ADD_LINE
  6
DOT
 62
    9
 10
30.270532795938095
 20
25
 11
410.25538779593808
 21
25
  0
LINE
  8
ADD_LINE
  6
DOT
 62
    9
 10
30.270532795938095
 20
12.5
 11
410.25538779593808
 21
12.5
  0
TEXT
  8
_0-a_
 62
    3
 10
276.08692519729209
 20
16.25
 40
5
 41
0.8
 50
0
  1
1/1
  0
TEXT
  8
_0-a_
 62
    3
 10
342.04615649661508
 20
16.25
 40
5
 41
0.8
 50
0
  1
E60-105
  0
LINE
  8
_0-1_一般図
  6
CONTINUOUS
 62
    7
 10
145
 20
116.98019036063134
 11
205
 21
163.01980963936893
  0
LINE
  8
_0-1_一般図
  6
CONTINUOUS
 62
    7
 10
145
 20
116.98019036063134
 11
145
 21
221.98019036063135
  0
LINE
  8
_0-1_一般図
  6
CONTINUOUS
 62
    7
 10
145
 20
221.98019036063135
 11
205
 21
221.98019036063135
  0
LINE
  8
_0-1_一般図
  6
CENTER1
 62
    4
 10
175
 20
140.00000000000017
 11
175
 21
227.94661034247838
  0
LINE
  8
_0-1_一般図
  6
CONTINUOUS
 62
    7
 10
205
 20
163.01980963936893
 11
205
 21
221.98019036063135
  0
ARC
  8
_0-1_一般図
  6
CONTINUOUS
 62
    7
 10
254.27483398711826
 20
139.46389586124218
 40
10
 50
43.211669382948379
 51
74.999999999999986
  0
ARC
  8
_0-1_一般図
  6
CONTINUOUS
 62
    7
 10
243.92207218301741
 20
100.82686280967941
 40
10
 50
255
 51
286.78833061705166
  0
LINE
  8
_0-1_一般図
  6
CONTINUOUS
 62
    7
 10
145
 20
116.98019036063134
 11
241.33388173199222
 21
91.167604546788752
  0
LINE
  8
_0-1_一般図
  6
CONTINUOUS
 62
    7
 10
295.61604106606603
 20
137.18640034379598
 11
261.56312589884965
 21
146.31085146277712
  0
ARC
  8
_0-1_一般図
  6
CONTINUOUS
 62
    7
 10
293.0278506150409
 20
127.52714208090528
 40
10
 50
66.469234390051881
 51
75
  0
LINE
  8
_0-1_一般図
  6
CONTINUOUS
 62
    7
 10
280.86335549522238
 20
82.128628245319064
 11
246.810440328006
 21
91.253079364300262
  0
ARC
  8
_0-1_一般図
  6
CONTINUOUS
 62
    7
 10
283.45154594624756
 20
91.78788650820978
 40
10
 50
255
 51
263.53076560994816
  0
LINE
  8
_0-1_一般図
  6
CONTINUOUS
 62
    7
 10
205
 20
163.01980963936893
 11
256.8630244381435
 21
149.12315412413284
  0
LINE
  8
_0-1_一般図
  6
CONTINUOUS
 62
    7
 10
297.02026498589368
 20
136.69560037504658
 11
300.9719704928745
 21
134.97482624385702
  0
LINE
  8
_0-1_一般図
  6
CONTINUOUS
 62
    7
 10
282.32484906676956
 20
81.851561526518893
 11
286.60751348968466
 21
81.36594288481372
  0
LINE
  8
_0-1_一般図
  6
CONTINUOUS
 62
    7
 10
300.9719704928745
 20
134.97482624385702
 11
286.60751348968466
 21
81.36594288481372
  0
LINE
  8
_0-1_一般図
  6
CENTER1
 62
    4
 10
175
 20
140.00000000000017
 11
298.31012622284754
 21
106.95915126000837
  0
LINE
  8
_0-1_一般図
  6
CONTINUOUS
 62
    5
 10
261.35474574536505
 20
145.53316614268357
 11
246.97775915857466
 21
91.877521741045555
  0
LINE
  8
_0-1_一般図
  6
CONTINUOUS
 62
    5
 10
296.05743074672972
 20
135.9520307412094
 11
281.81764694141322
 21
82.808434090971602
  0
LINE
  8
_0-9_
  6
CONTINUOUS
 62
    4
 10
146.30000000000004
 20
234.98019036063135
 11
146.30000000000004
 21
222.98019036063135
  0
LINE
  8
_0-9_
  6
CONTINUOUS
 62
    4
 10
203.69999999999996
 20
234.98019036063135
 11
203.69999999999996
 21
222.98019036063135
  0
LINE
  8
_0-9_
  6
CONTINUOUS
 62
    4
 10
145
 20
242.98019036063135
 11
145
 21
222.98019036063135
  0
LINE
  8
_0-9_
  6
CONTINUOUS
 62
    4
 10
205
 20
242.98019036063135
 11
205
 21
222.98019036063135
  0
POINT
  8
_0-9_
 62
    4
 10
133
 20
116.98019036063134
  0
POINT
  8
_0-9_
 62
    4
 10
133
 20
221.98019036063135
  0
LINE
  8
_0-9_
  6
CONTINUOUS
 62
    4
 10
132
 20
116.98019036063134
 11
144
 21
116.98019036063134
  0
LINE
  8
_0-9_
  6
CONTINUOUS
 62
    4
 10
132
 20
221.98019036063135
 11
144
 21
221.98019036063135
  0
LINE
  8
_0-9_
  6
CONTINUOUS
 62
    4
 10
133
 20
116.98019036063134
 11
133
 21
221.98019036063135
  0
TEXT
  8
_0-9_
 62
    3
 10
132.5
 20
166.23019036063135
 40
5
 41
0.8
 50
90
  1
105
  0
POINT
  8
_0-9_
 62
    4
 10
141.89417145876973
 20
105.38908044516252
  0
POINT
  8
_0-9_
 62
    4
 10
243.31638321912197
 20
78.213080709397843
  0
LINE
  8
_0-9_
  6
CONTINUOUS
 62
    4
 10
141.63535241366722
 20
104.42315461887345
 11
144.74118095489746
 21
116.01426453434226
  0
LINE
  8
_0-9_
  6
CONTINUOUS
 62
    4
 10
243.05756417401943
 20
77.247154883108777
 11
246.55162128290345
 21
90.287153538011196
  0
LINE
  8
_0-9_
  6
CONTINUOUS
 62
    4
 10
141.89417145876973
 20
105.38908044516252
 11
243.31638321912197
 21
78.213080709397843
  0
TEXT
  8
_0-9_
 62
    3
 10
189.59542792605765
 20
93.125205387007924
 40
5
 41
0.8
 50
-14.999999999999982
  1
105
  0
POINT
  8
_0-9_
 62
    4
 10
282.91934209697371
 20
67.601499860194508
  0
LINE
  8
_0-9_
  6
CONTINUOUS
 62
    4
 10
282.66052305187122
 20
66.635574033905442
 11
286.34869444458212
 21
80.400017058524654
  0
LINE
  8
_0-9_
  6
CONTINUOUS
 62
    4
 10
243.31638321912197
 20
78.213080709397843
 11
282.91934209697371
 21
67.601499860194508
  0
TEXT
  8
_0-9_
 62
    3
 10
261.19467979973484
 20
73.940243668783566
 40
5
 41
0.8
 50
-15.000000000000028
  1
41
  0
POINT
  8
_0-9_
 62
    4
 10
146.30000000000001
 20
233.98019036063135
  0
POINT
  8
_0-9_
 62
    4
 10
203.69999999999999
 20
233.98019036063135
  0
POINT
  8
_0-9_
 62
    4
 10
145
 20
241.98019036063135
  0
POINT
  8
_0-9_
 62
    4
 10
205
 20
241.98019036063135
  0
LINE
  8
_0-9_
  6
CONTINUOUS
 62
    4
 10
146.30000000000001
 20
233.98019036063135
 11
203.69999999999999
 21
233.98019036063135
  0
TEXT
  8
_0-9_
 62
    3
 10
168.375
 20
234.48019036063135
 40
5
 41
0.8
 50
0
  1
φ57.4
  0
LINE
  8
_0-9_
  6
CONTINUOUS
 62
    4
 10
145
 20
241.98019036063135
 11
205
 21
241.98019036063135
  0
TEXT
  8
_0-9_
 62
    3
 10
170.625
 20
242.48019036063135
 40
5
 41
0.8
 50
0
  1
φ60
  0
TEXT
  8
_0-a_
 62
    3
 10
134.30372897562847
 20
16.25
 40
5
 41
0.8
 50
0
  1
１０５°エルボ
  0
TEXT
  8
_0-9_
 62
    3
 10
221.49904150393797
 20
181.19453627242044
 40
5
 41
0.8
 50
-52.499999999999993
  1
105ﾟ
  0
ARC
  8
_0-9_
  6
CONTINUOUS
 62
    4
 10
205
 20
163.01980963936893
 40
23.653642245732208
 50
345
 51
90
  0
POINT
  8
_0-9_
 62
    4
 10
227.84766393095489
 20
156.89779654013188
  0
POINT
  8
_0-9_
 62
    4
 10
205
 20
186.67345188510114
  0
ENDSEC
  0
EOF
