  0
SECTION
  2
HEADER
  9
$ACADVER
  1
AC1009
  9
$INSBASE
 10
0
 20
0
 30
0
  9
$EXTMIN
 10
0
 20
0
  9
$EXTMAX
 10
420
 20
297
  9
$LIMMIN
 10
0
 20
0
  9
$LIMMAX
 10
420
 20
297
  9
$LTSCALE
 40
1
  0
ENDSEC
  0
SECTION
  2
TABLES
  0
TABLE
  2
LTYPE
 70
     9
  0
LTYPE
  2
CONTINUOUS
 70
    64
  3
実線
 72
    65
 73
     0
 40
0.0
  0
LTYPE
  2
DASHED1
 70
    64
  3
--  --  --  --  --  --  --  --  
 72
    65
 73
     2
 40
2.5
 49
1.25
 49
-1.25
  0
LTYPE
  2
DASHED2
 70
    64
  3
----    ----    ----    ----    
 72
    65
 73
     2
 40
5.0
 49
2.5
 49
-2.5
  0
LTYPE
  2
DASHED3
 70
    64
  3
------  ------  ------  ------  
 72
    65
 73
     2
 40
5.0
 49
3.75
 49
-1.25
  0
LTYPE
  2
CENTER1
 70
    64
  3
----- - ----- - ----- - ----- - 
 72
    65
 73
     4
 40
10.0
 49
6.25
 49
-1.25
 49
1.25
 49
-1.25
  0
LTYPE
  2
CENTER2
 70
    64
  3
----------  --  ----------  --  
 72
    65
 73
     4
 40
20.0
 49
12.5
 49
-2.5
 49
2.5
 49
-2.5
  0
LTYPE
  2
PHANTOM1
 70
    64
  3
--- - - --- - - --- - - --- - - 
 72
    65
 73
     6
 40
10.0
 49
3.25
 49
-1.25
 49
1.25
 49
-1.25
 49
1.25
 49
-1.25
  0
LTYPE
  2
PHANTOM2
 70
    64
  3
--------  -  -  --------  -  -  
 72
    65
 73
     6
 40
20.0
 49
10.0
 49
-2.5
 49
1.25
 49
-2.5
 49
1.25
 49
-2.5
  0
LTYPE
  2
DOT
 70
    64
  3
-   -   -   -   -   -   -   -   
 72
    65
 73
     2
 40
2.5
 49
0.625
 49
-1.875
  0
LTYPE
  2
DUMMY
 70
    64
  3
ダミー
 72
    65
 73
     0
 40
0.0
  0
LTYPE
  2
RAND1
 70
    64
  3
ランダム線1
 72
    65
 73
     4
 40
10.0
 49
1.0
 49
-2.0
 49
3.0
 49
-4.0
  0
LTYPE
  2
RAND2
 70
    64
  3
ランダム線2
 72
    65
 73
     4
 40
14.0
 49
2.0
 49
-3.0
 49
4.0
 49
-5.0
  0
LTYPE
  2
RAND3
 70
    64
  3
ランダム線3
 72
    65
 73
     4
 40
18.0
 49
3.0
 49
-4.0
 49
5.0
 49
-6.0
  0
LTYPE
  2
RAND4
 70
    64
  3
ランダム線4
 72
    65
 73
     4
 40
22.0
 49
4.0
 49
-5.0
 49
6.0
 49
-7.0
  0
LTYPE
  2
RAND5
 70
    64
  3
ランダム線5
 72
    65
 73
     4
 40
26.0
 49
5.0
 49
-6.0
 49
7.0
 49
-8.0
  0
LTYPE
  2
LONG1
 70
    64
  3
----------  --  ----------  --  
 72
    65
 73
     4
 40
40.0
 49
32.5
 49
-2.5
 49
2.5
 49
-2.5
  0
LTYPE
  2
LONG2
 70
    64
  3
--------  -  -  --------  -  -  
 72
    65
 73
     6
 40
40.0
 49
30.0
 49
-2.5
 49
1.25
 49
-2.5
 49
1.25
 49
-2.5
  0
LTYPE
  2
LONG3
 70
    64
  3
+++++++++++++++..+++++++++++++++
 72
    65
 73
     2
 40
40.0
 49
37.5
 49
-2.5
  0
LTYPE
  2
LONG4
 70
    64
  3
+++++++++++++++..+++++++++++++++
 72
    65
 73
     2
 40
80.0
 49
75.0
 49
-5.0
  0
LTYPE
  2
LONG5
 70
    64
  3
----------  --  ----------  --  
 72
    65
 73
     4
 40
60.0
 49
37.5
 49
-7.5
 49
7.5
 49
-7.5
  0
LTYPE
  2
dashed
 70
   64
  3
-------   -------------   ------
 72
   65
 73
    2
 40
7.5
 49
6
 49
-1.5
  0
LTYPE
  2
dashed_spaced
 70
   64
  3
----        --------        ----
 72
   65
 73
    2
 40
12
 49
6
 49
-6
  0
LTYPE
  2
long_dashed_dotted
 70
   64
  3
------------- --- --------------
 72
   65
 73
    4
 40
15.25
 49
12
 49
-1.5
 49
0.25
 49
-1.5
  0
LTYPE
  2
long_dashed_double-dotted
 70
   64
  3
----------- --- --- ------------
 72
   65
 73
    6
 40
17
 49
12
 49
-1.5
 49
0.25
 49
-1.5
 49
0.25
 49
-1.5
  0
LTYPE
  2
long_dashed_triplicate-dotted
 70
   64
  3
--------- --- --- --- ----------
 72
   65
 73
    8
 40
18.75
 49
12
 49
-1.5
 49
0.25
 49
-1.5
 49
0.25
 49
-1.5
 49
0.25
 49
-1.5
  0
LTYPE
  2
dotted
 70
   64
  3
   -       -       -       -    
 72
   65
 73
    2
 40
1.75
 49
0.25
 49
-1.5
  0
LTYPE
  2
chain
 70
   64
  3
-------------- -- --------------
 72
   65
 73
    4
 40
18.5
 49
12
 49
-1.5
 49
3.5
 49
-1.5
  0
LTYPE
  2
chain_double_dash
 70
   64
  3
------------ -- -- -------------
 72
   65
 73
    6
 40
23.5
 49
12
 49
-1.5
 49
3.5
 49
-1.5
 49
3.5
 49
-1.5
  0
LTYPE
  2
dashed_dotted
 70
   64
  3
-----------     -     ----------
 72
   65
 73
    4
 40
9.25
 49
6
 49
-1.5
 49
0.25
 49
-1.5
  0
LTYPE
  2
double-dashed_dotted
 70
   64
  3
------   -----------   -   -----
 72
   65
 73
    6
 40
16.75
 49
6
 49
-1.5
 49
6
 49
-1.5
 49
0.25
 49
-1.5
  0
LTYPE
  2
dashed_double-dotted
 70
   64
  3
---------    -    -    ---------
 72
   65
 73
    6
 40
11
 49
6
 49
-1.5
 49
0.25
 49
-1.5
 49
0.25
 49
-1.5
  0
LTYPE
  2
double-dashed_double-dotted
 70
   64
  3
-----   ---------   -   -   ----
 72
   65
 73
    8
 40
18.5
 49
6
 49
-1.5
 49
6
 49
-1.5
 49
0.25
 49
-1.5
 49
0.25
 49
-1.5
  0
LTYPE
  2
dashed_triplicate-dotted
 70
   64
  3
-------    -    -    -    ------
 72
   65
 73
    8
 40
12.75
 49
6
 49
-1.5
 49
0.25
 49
-1.5
 49
0.25
 49
-1.5
 49
0.25
 49
-1.5
  0
LTYPE
  2
double-dashed_triplicate-dotted
 70
   64
  3
-----  ---------  -  -  -  -----
 72
   65
 73
   10
 40
20.25
 49
6
 49
-1.5
 49
6
 49
-1.5
 49
0.25
 49
-1.5
 49
0.25
 49
-1.5
 49
0.25
 49
-1.5
  0
LTYPE
  2
undefined
 70
   64
  3
--------------------------------
 72
   65
 73
    0
 40
0
  0
ENDTAB
  0
TABLE
  2
STYLE
  5
3
100
AcDbSymbolTable
 70
     1
  0
STYLE
  5
10
100
AcDbSymbolTableRecord
100
AcDbTextStyleTableRecord
  2
STANDARD
 70
     0
 40
0.0
 41
1.0
 50
0.0
 71
     0
 42
0.2
  3
txt
  4
bigfont.shx
  0
STYLE
  5
26
100
AcDbSymbolTableRecord
100
AcDbTextStyleTableRecord
  2
TATEGAKI
 70
    68
 40
0.0
 41
1.0
 50
0.0
 71
     0
 42
1.0
  3
txt
  4
bigfont.shx
  0
ENDTAB
  0
TABLE
  2
LAYER
 70
    6
  0
LAYER
  2
_0-1_一般図
 70
   64
 62
    7
  6
CONTINUOUS
  0
LAYER
  2
_0-9_
 70
   64
 62
    7
  6
CONTINUOUS
  0
LAYER
  2
_0-a_
 70
   64
 62
    7
  6
CONTINUOUS
  0
LAYER
  2
_f-1_一般図
 70
   64
 62
    7
  6
CONTINUOUS
  0
LAYER
  2
_f-a_
 70
   64
 62
    7
  6
CONTINUOUS
  0
LAYER
  2
ADD_LINE
 70
   64
 62
    7
  6
CONTINUOUS
  0
ENDTAB
  0
ENDSEC
  0
SECTION
  2
BLOCKS
  0
ENDSEC
  0
SECTION
  2
ENTITIES
  0
LINE
  8
ADD_LINE
  6
DOT
 62
    9
 10
269.33692519729209
 20
25
 11
269.33692519729209
 21
12.5
  0
LINE
  8
ADD_LINE
  6
DOT
 62
    9
 10
289.33692519729209
 20
25
 11
289.33692519729209
 21
12.5
  0
LINE
  8
ADD_LINE
  6
DOT
 62
    9
 10
410.25538779593808
 20
25
 11
410.25538779593808
 21
12.5
  0
LINE
  8
ADD_LINE
  6
DOT
 62
    9
 10
30.270532795938095
 20
25
 11
30.270532795938095
 21
12.5
  0
TEXT
  8
_f-a_
 62
    7
 10
144.80372899661506
 20
25
 40
3
 41
0.8333333333333333
 50
0
  1
名　　称
  0
TEXT
  8
_f-a_
 62
    7
 10
274.33692519729209
 20
25
 40
3
 41
0.8333333333333333
 50
0
  1
縮　　尺
  0
TEXT
  8
_f-a_
 62
    7
 10
344.79615649661508
 20
25
 40
3
 41
0.8333333333333333
 50
0
  1
品　　番
  0
LINE
  8
ADD_LINE
  6
DOT
 62
    9
 10
30.270532795938095
 20
25
 11
410.25538779593808
 21
25
  0
LINE
  8
ADD_LINE
  6
DOT
 62
    9
 10
30.270532795938095
 20
12.5
 11
410.25538779593808
 21
12.5
  0
TEXT
  8
_0-a_
 62
    3
 10
276.08692519729209
 20
16.25
 40
5
 41
0.8
 50
0
  1
1/1
  0
TEXT
  8
_0-a_
 62
    3
 10
342.04615649661508
 20
16.25
 40
5
 41
0.8
 50
0.0000000000002101
  1
E60-135
  0
LINE
  8
_0-1_一般図
  6
CONTINUOUS
 62
    7
 10
155
 20
151.22601053616719
 11
215
 21
176.0788242785529
  0
LINE
  8
_0-1_一般図
  6
CONTINUOUS
 62
    7
 10
155
 20
151.22601053616719
 11
155
 21
247.22601053616719
  0
LINE
  8
_0-1_一般図
  6
CONTINUOUS
 62
    7
 10
155
 20
247.22601053616722
 11
215
 21
247.22601053616722
  0
LINE
  8
_0-1_一般図
  6
CONTINUOUS
 62
    7
 10
215
 20
176.0788242785529
 11
215
 21
247.22601053616722
  0
LINE
  8
_0-1_一般図
  6
CENTER1
 62
    4
 10
185
 20
163.65241740736005
 11
185
 21
253.19243051801422
  0
ARC
  8
_0-1_一般図
  6
CONTINUOUS
 62
    7
 10
254.51267394679809
 20
122.42401470802389
 40
10
 50
13.211669382948378
 51
44.999999999999986
  0
ARC
  8
_0-1_一般図
  6
CONTINUOUS
 62
    7
 10
226.22840269933613
 20
94.139743460561988
 40
10
 50
225
 51
256.78833061705166
  0
LINE
  8
_0-1_一般図
  6
CONTINUOUS
 62
    7
 10
155
 20
151.22601053616719
 11
219.15733488747074
 21
87.068675648696512
  0
LINE
  8
_0-1_一般図
  6
CONTINUOUS
 62
    7
 10
289.17646174155686
 20
99.781042193436463
 11
264.24799769332162
 21
124.70950624167165
  0
ARC
  8
_0-1_一般図
  6
CONTINUOUS
 62
    7
 10
282.10539392969145
 20
92.70997438157093
 40
10
 50
36.469234390051874
 51
45
  0
LINE
  8
_0-1_一般図
  6
CONTINUOUS
 62
    7
 10
248.87137521392367
 20
59.475955665803156
 11
223.94291116568843
 21
84.404419714038454
  0
ARC
  8
_0-1_一般図
  6
CONTINUOUS
 62
    7
 10
255.94244302578909
 20
66.547023477668688
 40
10
 50
225
 51
233.53076560994813
  0
LINE
  8
_0-1_一般図
  6
CONTINUOUS
 62
    7
 10
215
 20
176.0788242785529
 11
261.58374175866356
 21
129.49508251988934
  0
LINE
  8
_0-1_一般図
  6
CONTINUOUS
 62
    7
 10
290.14715534435459
 20
98.653884992409019
 11
292.70904563608008
 21
95.187798127133362
  0
LINE
  8
_0-1_一般図
  6
CONTINUOUS
 62
    7
 10
249.99853241495106
 20
58.505262063005432
 11
253.46461928022677
 21
55.943371771279914
  0
LINE
  8
_0-1_一般図
  6
CONTINUOUS
 62
    7
 10
292.70904563608008
 20
95.187798127133362
 11
253.46461928022677
 21
55.943371771279914
  0
LINE
  8
_0-1_一般図
  6
CENTER1
 62
    4
 10
185
 20
163.65241740736005
 11
276.39598338539446
 21
72.256434021965646
  0
LINE
  8
_0-1_一般図
  6
CONTINUOUS
 62
    5
 10
263.67869252671267
 20
124.14020107506269
 11
224.40003471186503
 21
84.861543260215058
  0
LINE
  8
_0-1_一般図
  6
CONTINUOUS
 62
    5
 10
288.94153161668658
 20
98.491351919605336
 11
250.03771877176536
 21
59.587539074684003
  0
LINE
  8
_0-9_
  6
CONTINUOUS
 62
    4
 10
156.30000000000004
 20
260.22601053616722
 11
156.30000000000004
 21
248.22601053616722
  0
LINE
  8
_0-9_
  6
CONTINUOUS
 62
    4
 10
213.69999999999996
 20
260.22601053616722
 11
213.69999999999996
 21
248.22601053616719
  0
LINE
  8
_0-9_
  6
CONTINUOUS
 62
    4
 10
155
 20
268.22601053616722
 11
155
 21
248.22601053616719
  0
LINE
  8
_0-9_
  6
CONTINUOUS
 62
    4
 10
215
 20
268.22601053616722
 11
215
 21
248.22601053616722
  0
POINT
  8
_0-9_
 62
    4
 10
143
 20
151.22601053616719
  0
POINT
  8
_0-9_
 62
    4
 10
143
 20
247.22601053616719
  0
LINE
  8
_0-9_
  6
CONTINUOUS
 62
    4
 10
142
 20
151.22601053616719
 11
154
 21
151.22601053616719
  0
LINE
  8
_0-9_
  6
CONTINUOUS
 62
    4
 10
142
 20
247.22601053616719
 11
154
 21
247.22601053616719
  0
LINE
  8
_0-9_
  6
CONTINUOUS
 62
    4
 10
143
 20
151.22601053616719
 11
143
 21
247.22601053616719
  0
TEXT
  8
_0-9_
 62
    3
 10
142.5
 20
197.10101053616719
 40
5
 41
0.8
 50
90
  1
96
  0
POINT
  8
_0-9_
 62
    4
 10
146.51471862576145
 20
142.74072916192861
  0
POINT
  8
_0-9_
 62
    4
 10
214.39696961966996
 20
74.858478168020142
  0
LINE
  8
_0-9_
  6
CONTINUOUS
 62
    4
 10
145.80761184457489
 20
142.03362238074206
 11
154.29289321881345
 21
150.51890375498064
  0
LINE
  8
_0-9_
  6
CONTINUOUS
 62
    4
 10
213.68986283848344
 20
74.151371386833603
 11
223.23580438450176
 21
83.697312932851943
  0
LINE
  8
_0-9_
  6
CONTINUOUS
 62
    4
 10
146.51471862576145
 20
142.74072916192861
 11
214.39696961966996
 21
74.858478168020142
  0
TEXT
  8
_0-9_
 62
    3
 10
179.30679560328758
 20
110.65575896558907
 40
5
 41
0.8
 50
-45.000000000000142
  1
96
  0
POINT
  8
_0-9_
 62
    4
 10
243.38834764831853
 20
45.867100139371615
  0
LINE
  8
_0-9_
  6
CONTINUOUS
 62
    4
 10
242.68124086713198
 20
45.159993358185062
 11
252.75751249904025
 21
55.236264990093332
  0
LINE
  8
_0-9_
  6
CONTINUOUS
 62
    4
 10
214.39696961966996
 20
74.858478168020142
 11
243.38834764831853
 21
45.867100139371615
  0
TEXT
  8
_0-9_
 62
    3
 10
227.74361011456611
 20
62.218944454310559
 40
5
 41
0.8
 50
-44.999999999999936
  1
41
  0
POINT
  8
_0-9_
 62
    4
 10
156.30000000000001
 20
259.22601053616722
  0
POINT
  8
_0-9_
 62
    4
 10
213.69999999999999
 20
259.22601053616722
  0
POINT
  8
_0-9_
 62
    4
 10
155
 20
267.22601053616722
  0
POINT
  8
_0-9_
 62
    4
 10
215
 20
267.22601053616722
  0
LINE
  8
_0-9_
  6
CONTINUOUS
 62
    4
 10
156.30000000000001
 20
259.22601053616722
 11
213.69999999999999
 21
259.22601053616722
  0
TEXT
  8
_0-9_
 62
    3
 10
178.375
 20
259.72601053616722
 40
5
 41
0.8
 50
0
  1
φ57.4
  0
LINE
  8
_0-9_
  6
CONTINUOUS
 62
    4
 10
155
 20
267.22601053616722
 11
215
 21
267.22601053616722
  0
TEXT
  8
_0-9_
 62
    3
 10
180.625
 20
267.72601053616722
 40
5
 41
0.8
 50
0
  1
φ60
  0
TEXT
  8
_0-a_
 62
    3
 10
134.30372897562847
 20
16.25
 40
5
 41
0.8
 50
0.0000000000002626
  1
１３５°エルボ
  0
TEXT
  8
_0-9_
 62
    3
 10
230.283507200131
 20
187.14492611775324
 40
5
 41
0.8
 50
-67.499999999999986
  1
135ﾟ
  0
ARC
  8
_0-9_
  6
CONTINUOUS
 62
    4
 10
215
 20
176.0788242785529
 40
17.854933321916725
 50
315
 51
90
  0
POINT
  8
_0-9_
 62
    4
 10
227.62534442956095
 20
163.45347984899195
  0
POINT
  8
_0-9_
 62
    4
 10
215
 20
193.93375760046962
  0
ENDSEC
  0
EOF
