  0
SECTION
  2
HEADER
  9
$ACADVER
  1
AC1009
  9
$INSBASE
 10
0
 20
0
 30
0
  9
$EXTMIN
 10
0
 20
0
  9
$EXTMAX
 10
420
 20
297
  9
$LIMMIN
 10
0
 20
0
  9
$LIMMAX
 10
420
 20
297
  9
$LTSCALE
 40
1
  0
ENDSEC
  0
SECTION
  2
TABLES
  0
TABLE
  2
LTYPE
 70
     9
  0
LTYPE
  2
CONTINUOUS
 70
    64
  3
実線
 72
    65
 73
     0
 40
0.0
  0
LTYPE
  2
DASHED1
 70
    64
  3
--  --  --  --  --  --  --  --  
 72
    65
 73
     2
 40
2.5
 49
1.25
 49
-1.25
  0
LTYPE
  2
DASHED2
 70
    64
  3
----    ----    ----    ----    
 72
    65
 73
     2
 40
5.0
 49
2.5
 49
-2.5
  0
LTYPE
  2
DASHED3
 70
    64
  3
------  ------  ------  ------  
 72
    65
 73
     2
 40
5.0
 49
3.75
 49
-1.25
  0
LTYPE
  2
CENTER1
 70
    64
  3
----- - ----- - ----- - ----- - 
 72
    65
 73
     4
 40
10.0
 49
6.25
 49
-1.25
 49
1.25
 49
-1.25
  0
LTYPE
  2
CENTER2
 70
    64
  3
----------  --  ----------  --  
 72
    65
 73
     4
 40
20.0
 49
12.5
 49
-2.5
 49
2.5
 49
-2.5
  0
LTYPE
  2
PHANTOM1
 70
    64
  3
--- - - --- - - --- - - --- - - 
 72
    65
 73
     6
 40
10.0
 49
3.25
 49
-1.25
 49
1.25
 49
-1.25
 49
1.25
 49
-1.25
  0
LTYPE
  2
PHANTOM2
 70
    64
  3
--------  -  -  --------  -  -  
 72
    65
 73
     6
 40
20.0
 49
10.0
 49
-2.5
 49
1.25
 49
-2.5
 49
1.25
 49
-2.5
  0
LTYPE
  2
DOT
 70
    64
  3
-   -   -   -   -   -   -   -   
 72
    65
 73
     2
 40
2.5
 49
0.625
 49
-1.875
  0
LTYPE
  2
DUMMY
 70
    64
  3
ダミー
 72
    65
 73
     0
 40
0.0
  0
LTYPE
  2
RAND1
 70
    64
  3
ランダム線1
 72
    65
 73
     4
 40
10.0
 49
1.0
 49
-2.0
 49
3.0
 49
-4.0
  0
LTYPE
  2
RAND2
 70
    64
  3
ランダム線2
 72
    65
 73
     4
 40
14.0
 49
2.0
 49
-3.0
 49
4.0
 49
-5.0
  0
LTYPE
  2
RAND3
 70
    64
  3
ランダム線3
 72
    65
 73
     4
 40
18.0
 49
3.0
 49
-4.0
 49
5.0
 49
-6.0
  0
LTYPE
  2
RAND4
 70
    64
  3
ランダム線4
 72
    65
 73
     4
 40
22.0
 49
4.0
 49
-5.0
 49
6.0
 49
-7.0
  0
LTYPE
  2
RAND5
 70
    64
  3
ランダム線5
 72
    65
 73
     4
 40
26.0
 49
5.0
 49
-6.0
 49
7.0
 49
-8.0
  0
LTYPE
  2
LONG1
 70
    64
  3
----------  --  ----------  --  
 72
    65
 73
     4
 40
40.0
 49
32.5
 49
-2.5
 49
2.5
 49
-2.5
  0
LTYPE
  2
LONG2
 70
    64
  3
--------  -  -  --------  -  -  
 72
    65
 73
     6
 40
40.0
 49
30.0
 49
-2.5
 49
1.25
 49
-2.5
 49
1.25
 49
-2.5
  0
LTYPE
  2
LONG3
 70
    64
  3
+++++++++++++++..+++++++++++++++
 72
    65
 73
     2
 40
40.0
 49
37.5
 49
-2.5
  0
LTYPE
  2
LONG4
 70
    64
  3
+++++++++++++++..+++++++++++++++
 72
    65
 73
     2
 40
80.0
 49
75.0
 49
-5.0
  0
LTYPE
  2
LONG5
 70
    64
  3
----------  --  ----------  --  
 72
    65
 73
     4
 40
60.0
 49
37.5
 49
-7.5
 49
7.5
 49
-7.5
  0
LTYPE
  2
dashed
 70
   64
  3
-------   -------------   ------
 72
   65
 73
    2
 40
7.5
 49
6
 49
-1.5
  0
LTYPE
  2
dashed_spaced
 70
   64
  3
----        --------        ----
 72
   65
 73
    2
 40
12
 49
6
 49
-6
  0
LTYPE
  2
long_dashed_dotted
 70
   64
  3
------------- --- --------------
 72
   65
 73
    4
 40
15.25
 49
12
 49
-1.5
 49
0.25
 49
-1.5
  0
LTYPE
  2
long_dashed_double-dotted
 70
   64
  3
----------- --- --- ------------
 72
   65
 73
    6
 40
17
 49
12
 49
-1.5
 49
0.25
 49
-1.5
 49
0.25
 49
-1.5
  0
LTYPE
  2
long_dashed_triplicate-dotted
 70
   64
  3
--------- --- --- --- ----------
 72
   65
 73
    8
 40
18.75
 49
12
 49
-1.5
 49
0.25
 49
-1.5
 49
0.25
 49
-1.5
 49
0.25
 49
-1.5
  0
LTYPE
  2
dotted
 70
   64
  3
   -       -       -       -    
 72
   65
 73
    2
 40
1.75
 49
0.25
 49
-1.5
  0
LTYPE
  2
chain
 70
   64
  3
-------------- -- --------------
 72
   65
 73
    4
 40
18.5
 49
12
 49
-1.5
 49
3.5
 49
-1.5
  0
LTYPE
  2
chain_double_dash
 70
   64
  3
------------ -- -- -------------
 72
   65
 73
    6
 40
23.5
 49
12
 49
-1.5
 49
3.5
 49
-1.5
 49
3.5
 49
-1.5
  0
LTYPE
  2
dashed_dotted
 70
   64
  3
-----------     -     ----------
 72
   65
 73
    4
 40
9.25
 49
6
 49
-1.5
 49
0.25
 49
-1.5
  0
LTYPE
  2
double-dashed_dotted
 70
   64
  3
------   -----------   -   -----
 72
   65
 73
    6
 40
16.75
 49
6
 49
-1.5
 49
6
 49
-1.5
 49
0.25
 49
-1.5
  0
LTYPE
  2
dashed_double-dotted
 70
   64
  3
---------    -    -    ---------
 72
   65
 73
    6
 40
11
 49
6
 49
-1.5
 49
0.25
 49
-1.5
 49
0.25
 49
-1.5
  0
LTYPE
  2
double-dashed_double-dotted
 70
   64
  3
-----   ---------   -   -   ----
 72
   65
 73
    8
 40
18.5
 49
6
 49
-1.5
 49
6
 49
-1.5
 49
0.25
 49
-1.5
 49
0.25
 49
-1.5
  0
LTYPE
  2
dashed_triplicate-dotted
 70
   64
  3
-------    -    -    -    ------
 72
   65
 73
    8
 40
12.75
 49
6
 49
-1.5
 49
0.25
 49
-1.5
 49
0.25
 49
-1.5
 49
0.25
 49
-1.5
  0
LTYPE
  2
double-dashed_triplicate-dotted
 70
   64
  3
-----  ---------  -  -  -  -----
 72
   65
 73
   10
 40
20.25
 49
6
 49
-1.5
 49
6
 49
-1.5
 49
0.25
 49
-1.5
 49
0.25
 49
-1.5
 49
0.25
 49
-1.5
  0
LTYPE
  2
undefined
 70
   64
  3
--------------------------------
 72
   65
 73
    0
 40
0
  0
ENDTAB
  0
TABLE
  2
STYLE
  5
3
100
AcDbSymbolTable
 70
     1
  0
STYLE
  5
10
100
AcDbSymbolTableRecord
100
AcDbTextStyleTableRecord
  2
STANDARD
 70
     0
 40
0.0
 41
1.0
 50
0.0
 71
     0
 42
0.2
  3
txt
  4
bigfont.shx
  0
STYLE
  5
26
100
AcDbSymbolTableRecord
100
AcDbTextStyleTableRecord
  2
TATEGAKI
 70
    68
 40
0.0
 41
1.0
 50
0.0
 71
     0
 42
1.0
  3
txt
  4
bigfont.shx
  0
ENDTAB
  0
TABLE
  2
LAYER
 70
    6
  0
LAYER
  2
_0-1_一般図
 70
   64
 62
    7
  6
CONTINUOUS
  0
LAYER
  2
_0-9_
 70
   64
 62
    7
  6
CONTINUOUS
  0
LAYER
  2
_0-a_
 70
   64
 62
    7
  6
CONTINUOUS
  0
LAYER
  2
_f-1_一般図
 70
   64
 62
    7
  6
CONTINUOUS
  0
LAYER
  2
_f-a_
 70
   64
 62
    7
  6
CONTINUOUS
  0
LAYER
  2
ADD_LINE
 70
   64
 62
    7
  6
CONTINUOUS
  0
ENDTAB
  0
ENDSEC
  0
SECTION
  2
BLOCKS
  0
ENDSEC
  0
SECTION
  2
ENTITIES
  0
LINE
  8
ADD_LINE
  6
DOT
 62
    9
 10
269.33692519729209
 20
25
 11
269.33692519729209
 21
12.5
  0
LINE
  8
ADD_LINE
  6
DOT
 62
    9
 10
289.33692519729209
 20
25
 11
289.33692519729209
 21
12.5
  0
LINE
  8
ADD_LINE
  6
DOT
 62
    9
 10
410.25538779593808
 20
25
 11
410.25538779593808
 21
12.5
  0
TEXT
  8
_0-a_
 62
    3
 10
276.08692519729209
 20
16.25
 40
5
 41
0.8
 50
0
  1
1/1
  0
LINE
  8
ADD_LINE
  6
DOT
 62
    9
 10
30.270532795938124
 20
25.000000000000028
 11
30.270532795938124
 21
12.5
  0
TEXT
  8
_f-a_
 62
    7
 10
144.80372899661506
 20
25.000000000000028
 40
3
 41
0.8333333333333333
 50
0
  1
名　　称
  0
LINE
  8
ADD_LINE
  6
DOT
 62
    9
 10
30.270532795938124
 20
25
 11
410.25538779593808
 21
25
  0
LINE
  8
ADD_LINE
  6
DOT
 62
    9
 10
30.270532795938124
 20
12.5
 11
410.25538779593808
 21
12.5
  0
TEXT
  8
_f-a_
 62
    7
 10
274.33692519729209
 20
25
 40
3
 41
0.8333333333333333
 50
0
  1
縮　　尺
  0
TEXT
  8
_f-a_
 62
    7
 10
344.79615649661508
 20
25
 40
3
 41
0.8333333333333333
 50
0
  1
品　　番
  0
TEXT
  8
_0-a_
 62
    3
 10
136.55372897562847
 20
16.250000000000028
 40
5
 41
0.8
 50
0
  1
９０°エルボ
  0
TEXT
  8
_0-a_
 62
    3
 10
343.17115649661508
 20
16.25
 40
5
 41
0.8
 50
0
  1
E89-90
  0
POINT
  8
_0-9_
 62
    4
 10
118.49999999999999
 20
91.346241328218341
  0
POINT
  8
_0-9_
 62
    4
 10
118.5
 20
240.3462413282183
  0
LINE
  8
_0-9_
  6
CONTINUOUS
 62
    4
 10
117.49999999999999
 20
91.346241328218341
 11
129.5
 21
91.346241328218341
  0
LINE
  8
_0-9_
  6
CONTINUOUS
 62
    4
 10
117.5
 20
240.3462413282183
 11
129.5
 21
240.3462413282183
  0
LINE
  8
_1-9_
  6
CONTINUOUS
 62
    4
 10
118.49999999999999
 20
91.346241328218341
 11
118.5
 21
240.3462413282183
  0
TEXT
  8
_1-9_
 62
    3
 10
117.99999999999999
 20
162.5962413282183
 40
5
 41
0.8
 50
90
  1
149
  0
POINT
  8
_0-9_
 62
    4
 10
130.26963069120384
 20
79.348452782758713
  0
POINT
  8
_0-9_
 62
    4
 10
279.24217179732869
 20
76.48803386520494
  0
LINE
  8
_0-9_
  6
CONTINUOUS
 62
    4
 10
130.25043324880414
 20
78.348637070637068
 11
130.48080255760044
 21
90.346425616096809
  0
LINE
  8
_0-9_
  6
CONTINUOUS
 62
    4
 10
279.22297435492902
 20
75.488218153083295
 11
279.48213982732483
 21
88.985730266725369
  0
LINE
  8
_1-9_
  6
CONTINUOUS
 62
    4
 10
130.26963069120384
 20
79.348452782758713
 11
279.24217179732869
 21
76.48803386520494
  0
TEXT
  8
_1-9_
 62
    3
 10
201.51609890107079
 20
78.480542867841635
 40
5
 41
0.8
 50
-1.1000000000000234
  1
149
  0
POINT
  8
_0-9_
 62
    4
 10
320.23461599431619
 20
75.700938726817668
  0
LINE
  8
_0-9_
  6
CONTINUOUS
 62
    4
 10
320.21541855191646
 20
74.701123014696023
 11
320.48898210611208
 21
88.948496912429349
  0
LINE
  8
_1-9_
  6
CONTINUOUS
 62
    4
 10
279.24217179732869
 20
76.48803386520494
 11
320.23461599431619
 21
75.700938726817668
  0
TEXT
  8
_1-9_
 62
    3
 10
297.62338422876377
 20
76.635188717171474
 40
5
 41
0.8
 50
-1.0999999999999792
  1
41
  0
POINT
  8
_0-9_
 62
    4
 10
130.5
 20
260.3462413282183
  0
POINT
  8
_0-9_
 62
    4
 10
219.50000000000031
 20
260.3462413282183
  0
LINE
  8
_0-9_
  6
CONTINUOUS
 62
    4
 10
130.5
 20
261.3462413282183
 11
130.5
 21
241.34624132821827
  0
LINE
  8
_0-9_
  6
CONTINUOUS
 62
    4
 10
219.50000000000031
 20
261.3462413282183
 11
219.50000000000031
 21
241.34624132821827
  0
POINT
  8
_0-9_
 62
    4
 10
131.80000000000007
 20
252.34624132821827
  0
POINT
  8
_0-9_
 62
    4
 10
218.19999999999999
 20
252.34624132821827
  0
LINE
  8
_0-9_
  6
CONTINUOUS
 62
    4
 10
131.80000000000007
 20
253.34624132821827
 11
131.80000000000007
 21
241.34624132821827
  0
LINE
  8
_0-9_
  6
CONTINUOUS
 62
    4
 10
218.19999999999999
 20
253.34624132821827
 11
218.19999999999999
 21
241.34624132821827
  0
LINE
  8
_0-9_
  6
CONTINUOUS
 62
    4
 10
130.5
 20
260.3462413282183
 11
219.50000000000031
 21
260.3462413282183
  0
TEXT
  8
_0-9_
 62
    3
 10
170.62500000000017
 20
260.8462413282183
 40
5
 41
0.8
 50
0
  1
φ89
  0
LINE
  8
_0-9_
  6
CONTINUOUS
 62
    4
 10
131.80000000000007
 20
252.34624132821827
 11
218.19999999999999
 21
252.34624132821827
  0
TEXT
  8
_0-9_
 62
    3
 10
168.37500000000003
 20
252.84624132821827
 40
5
 41
0.8
 50
0
  1
φ86.4
  0
LINE
  8
_0-1_一般図
  6
CONTINUOUS
 62
    7
 10
219.5
 20
178.65375867178165
 11
130.5
 21
91.346241328218326
  0
ARC
  8
_0-1_一般図
  6
CONTINUOUS
 62
    7
 10
316.20801792169419
 20
165.29475016480711
 40
10
 50
80.369234390051872
 51
88.900000000000006
  0
ARC
  8
_0-1_一般図
  6
CONTINUOUS
 62
    7
 10
314.94098672331467
 20
99.306913164778592
 40
10
 50
268.89999999999998
 51
277.43076560994814
  0
LINE
  8
_0-1_一般図
  6
CONTINUOUS
 62
    7
 10
219.5
 20
178.65375867178165
 11
275.91425739990962
 21
177.57054959252258
  0
ARC
  8
_0-1_一般図
  6
CONTINUOUS
 62
    7
 10
275.72228297591272
 20
167.57239247130616
 40
10
 50
57.111669382948605
 51
88.899999999999991
  0
LINE
  8
_0-1_一般図
  6
CONTINUOUS
 62
    7
 10
130.5
 20
91.346241328218326
 11
274.20568502633722
 21
88.586951213696295
  0
ARC
  8
_0-1_一般図
  6
CONTINUOUS
 62
    7
 10
274.39765945033417
 20
98.585108334912746
 40
10
 50
268.89999999999998
 51
300.68833061705141
  0
LINE
  8
_0-1_一般図
  6
CONTINUOUS
 62
    7
 10
314.74901229931771
 20
89.30875604356217
 11
279.5013372697245
 21
89.985545978847
  0
LINE
  8
_0-1_一般図
  6
CONTINUOUS
 62
    7
 10
316.39999234569103
 20
175.29290728602356
 11
281.15231731609782
 21
175.96969722130842
  0
LINE
  8
_0-1_一般図
  6
CONTINUOUS
 62
    7
 10
130.5
 20
91.346241328218326
 11
130.5
 21
240.3462413282183
  0
LINE
  8
_0-1_一般図
  6
CONTINUOUS
 62
    7
 10
219.5
 20
178.65375867178165
 11
219.5
 21
240.34624132821827
  0
LINE
  8
_0-1_一般図
  6
CONTINUOUS
 62
    7
 10
130.50000000000003
 20
240.34624132821827
 11
219.50000000000006
 21
240.34624132821827
  0
LINE
  8
_0-1_一般図
  6
CENTER1
 62
    4
 10
175
 20
247.82369839019543
 11
175
 21
135
  0
LINE
  8
_0-1_一般図
  6
CONTINUOUS
 62
    7
 10
317.88099956423463
 20
175.15381363066038
 11
322.13036343128545
 21
174.43274029882991
  0
LINE
  8
_0-1_一般図
  6
CONTINUOUS
 62
    7
 10
316.23426739243217
 20
89.390894552911902
 11
320.50817954851175
 21
89.948312624550994
  0
LINE
  8
_0-1_一般図
  6
CONTINUOUS
 62
    7
 10
322.13036343128545
 20
174.43274029882991
 11
320.50817954851175
 21
89.948312624550994
  0
LINE
  8
_0-1_一般図
  6
CENTER1
 62
    4
 10
175
 20
135
 11
327.35327158588018
 21
132.07466774105029
  0
LINE
  8
_0-1_一般図
  6
CONTINUOUS
 62
    5
 10
281.11412640915177
 20
173.98068910085942
 11
279.54712709248469
 21
92.370310745826487
  0
LINE
  8
_0-1_一般図
  6
CONTINUOUS
 62
    5
 10
317.10749204553093
 20
173.28958117447058
 11
315.54049272886385
 21
91.679202819437648
  0
TEXT
  8
_0-9_
 62
    3
 10
233.90890557097356
 20
200.4932271169335
 40
5
 41
0.8
 50
-45.550000000000004
  1
91.1ﾟ
  0
ARC
  8
_0-9_
  6
CONTINUOUS
 62
    4
 10
219.5
 20
178.65375867178165
 40
25.079854216160349
 50
358.90000000000003
 51
90
  0
POINT
  8
_0-9_
 62
    4
 10
244.57523230303738
 20
178.17228961507431
  0
POINT
  8
_0-9_
 62
    4
 10
219.5
 20
203.733612887942
  0
ENDSEC
  0
EOF
