  0
SECTION
  2
HEADER
  9
$ACADVER
  1
AC1009
  9
$INSBASE
 10
0
 20
0
 30
0
  9
$EXTMIN
 10
0
 20
0
  9
$EXTMAX
 10
420
 20
297
  9
$LIMMIN
 10
0
 20
0
  9
$LIMMAX
 10
420
 20
297
  9
$LTSCALE
 40
1
  0
ENDSEC
  0
SECTION
  2
TABLES
  0
TABLE
  2
LTYPE
 70
     9
  0
LTYPE
  2
CONTINUOUS
 70
    64
  3
実線
 72
    65
 73
     0
 40
0.0
  0
LTYPE
  2
DASHED1
 70
    64
  3
--  --  --  --  --  --  --  --  
 72
    65
 73
     2
 40
2.5
 49
1.25
 49
-1.25
  0
LTYPE
  2
DASHED2
 70
    64
  3
----    ----    ----    ----    
 72
    65
 73
     2
 40
5.0
 49
2.5
 49
-2.5
  0
LTYPE
  2
DASHED3
 70
    64
  3
------  ------  ------  ------  
 72
    65
 73
     2
 40
5.0
 49
3.75
 49
-1.25
  0
LTYPE
  2
CENTER1
 70
    64
  3
----- - ----- - ----- - ----- - 
 72
    65
 73
     4
 40
10.0
 49
6.25
 49
-1.25
 49
1.25
 49
-1.25
  0
LTYPE
  2
CENTER2
 70
    64
  3
----------  --  ----------  --  
 72
    65
 73
     4
 40
20.0
 49
12.5
 49
-2.5
 49
2.5
 49
-2.5
  0
LTYPE
  2
PHANTOM1
 70
    64
  3
--- - - --- - - --- - - --- - - 
 72
    65
 73
     6
 40
10.0
 49
3.25
 49
-1.25
 49
1.25
 49
-1.25
 49
1.25
 49
-1.25
  0
LTYPE
  2
PHANTOM2
 70
    64
  3
--------  -  -  --------  -  -  
 72
    65
 73
     6
 40
20.0
 49
10.0
 49
-2.5
 49
1.25
 49
-2.5
 49
1.25
 49
-2.5
  0
LTYPE
  2
DOT
 70
    64
  3
-   -   -   -   -   -   -   -   
 72
    65
 73
     2
 40
2.5
 49
0.625
 49
-1.875
  0
LTYPE
  2
DUMMY
 70
    64
  3
ダミー
 72
    65
 73
     0
 40
0.0
  0
LTYPE
  2
RAND1
 70
    64
  3
ランダム線1
 72
    65
 73
     4
 40
10.0
 49
1.0
 49
-2.0
 49
3.0
 49
-4.0
  0
LTYPE
  2
RAND2
 70
    64
  3
ランダム線2
 72
    65
 73
     4
 40
14.0
 49
2.0
 49
-3.0
 49
4.0
 49
-5.0
  0
LTYPE
  2
RAND3
 70
    64
  3
ランダム線3
 72
    65
 73
     4
 40
18.0
 49
3.0
 49
-4.0
 49
5.0
 49
-6.0
  0
LTYPE
  2
RAND4
 70
    64
  3
ランダム線4
 72
    65
 73
     4
 40
22.0
 49
4.0
 49
-5.0
 49
6.0
 49
-7.0
  0
LTYPE
  2
RAND5
 70
    64
  3
ランダム線5
 72
    65
 73
     4
 40
26.0
 49
5.0
 49
-6.0
 49
7.0
 49
-8.0
  0
LTYPE
  2
LONG1
 70
    64
  3
----------  --  ----------  --  
 72
    65
 73
     4
 40
40.0
 49
32.5
 49
-2.5
 49
2.5
 49
-2.5
  0
LTYPE
  2
LONG2
 70
    64
  3
--------  -  -  --------  -  -  
 72
    65
 73
     6
 40
40.0
 49
30.0
 49
-2.5
 49
1.25
 49
-2.5
 49
1.25
 49
-2.5
  0
LTYPE
  2
LONG3
 70
    64
  3
+++++++++++++++..+++++++++++++++
 72
    65
 73
     2
 40
40.0
 49
37.5
 49
-2.5
  0
LTYPE
  2
LONG4
 70
    64
  3
+++++++++++++++..+++++++++++++++
 72
    65
 73
     2
 40
80.0
 49
75.0
 49
-5.0
  0
LTYPE
  2
LONG5
 70
    64
  3
----------  --  ----------  --  
 72
    65
 73
     4
 40
60.0
 49
37.5
 49
-7.5
 49
7.5
 49
-7.5
  0
LTYPE
  2
dashed
 70
   64
  3
-------   -------------   ------
 72
   65
 73
    2
 40
7.5
 49
6
 49
-1.5
  0
LTYPE
  2
dashed_spaced
 70
   64
  3
----        --------        ----
 72
   65
 73
    2
 40
12
 49
6
 49
-6
  0
LTYPE
  2
long_dashed_dotted
 70
   64
  3
------------- --- --------------
 72
   65
 73
    4
 40
15.25
 49
12
 49
-1.5
 49
0.25
 49
-1.5
  0
LTYPE
  2
long_dashed_double-dotted
 70
   64
  3
----------- --- --- ------------
 72
   65
 73
    6
 40
17
 49
12
 49
-1.5
 49
0.25
 49
-1.5
 49
0.25
 49
-1.5
  0
LTYPE
  2
long_dashed_triplicate-dotted
 70
   64
  3
--------- --- --- --- ----------
 72
   65
 73
    8
 40
18.75
 49
12
 49
-1.5
 49
0.25
 49
-1.5
 49
0.25
 49
-1.5
 49
0.25
 49
-1.5
  0
LTYPE
  2
dotted
 70
   64
  3
   -       -       -       -    
 72
   65
 73
    2
 40
1.75
 49
0.25
 49
-1.5
  0
LTYPE
  2
chain
 70
   64
  3
-------------- -- --------------
 72
   65
 73
    4
 40
18.5
 49
12
 49
-1.5
 49
3.5
 49
-1.5
  0
LTYPE
  2
chain_double_dash
 70
   64
  3
------------ -- -- -------------
 72
   65
 73
    6
 40
23.5
 49
12
 49
-1.5
 49
3.5
 49
-1.5
 49
3.5
 49
-1.5
  0
LTYPE
  2
dashed_dotted
 70
   64
  3
-----------     -     ----------
 72
   65
 73
    4
 40
9.25
 49
6
 49
-1.5
 49
0.25
 49
-1.5
  0
LTYPE
  2
double-dashed_dotted
 70
   64
  3
------   -----------   -   -----
 72
   65
 73
    6
 40
16.75
 49
6
 49
-1.5
 49
6
 49
-1.5
 49
0.25
 49
-1.5
  0
LTYPE
  2
dashed_double-dotted
 70
   64
  3
---------    -    -    ---------
 72
   65
 73
    6
 40
11
 49
6
 49
-1.5
 49
0.25
 49
-1.5
 49
0.25
 49
-1.5
  0
LTYPE
  2
double-dashed_double-dotted
 70
   64
  3
-----   ---------   -   -   ----
 72
   65
 73
    8
 40
18.5
 49
6
 49
-1.5
 49
6
 49
-1.5
 49
0.25
 49
-1.5
 49
0.25
 49
-1.5
  0
LTYPE
  2
dashed_triplicate-dotted
 70
   64
  3
-------    -    -    -    ------
 72
   65
 73
    8
 40
12.75
 49
6
 49
-1.5
 49
0.25
 49
-1.5
 49
0.25
 49
-1.5
 49
0.25
 49
-1.5
  0
LTYPE
  2
double-dashed_triplicate-dotted
 70
   64
  3
-----  ---------  -  -  -  -----
 72
   65
 73
   10
 40
20.25
 49
6
 49
-1.5
 49
6
 49
-1.5
 49
0.25
 49
-1.5
 49
0.25
 49
-1.5
 49
0.25
 49
-1.5
  0
LTYPE
  2
undefined
 70
   64
  3
--------------------------------
 72
   65
 73
    0
 40
0
  0
ENDTAB
  0
TABLE
  2
STYLE
  5
3
100
AcDbSymbolTable
 70
     1
  0
STYLE
  5
10
100
AcDbSymbolTableRecord
100
AcDbTextStyleTableRecord
  2
STANDARD
 70
     0
 40
0.0
 41
1.0
 50
0.0
 71
     0
 42
0.2
  3
txt
  4
bigfont.shx
  0
STYLE
  5
26
100
AcDbSymbolTableRecord
100
AcDbTextStyleTableRecord
  2
TATEGAKI
 70
    68
 40
0.0
 41
1.0
 50
0.0
 71
     0
 42
1.0
  3
txt
  4
bigfont.shx
  0
ENDTAB
  0
TABLE
  2
LAYER
 70
    6
  0
LAYER
  2
_0-1_一般図
 70
   64
 62
    7
  6
CONTINUOUS
  0
LAYER
  2
_0-9_
 70
   64
 62
    7
  6
CONTINUOUS
  0
LAYER
  2
_0-a_
 70
   64
 62
    7
  6
CONTINUOUS
  0
LAYER
  2
_f-1_一般図
 70
   64
 62
    7
  6
CONTINUOUS
  0
LAYER
  2
_f-a_
 70
   64
 62
    7
  6
CONTINUOUS
  0
LAYER
  2
ADD_LINE
 70
   64
 62
    7
  6
CONTINUOUS
  0
ENDTAB
  0
ENDSEC
  0
SECTION
  2
BLOCKS
  0
ENDSEC
  0
SECTION
  2
ENTITIES
  0
LINE
  8
ADD_LINE
  6
DOT
 62
    9
 10
269.33692519729209
 20
25
 11
269.33692519729209
 21
12.5
  0
LINE
  8
ADD_LINE
  6
DOT
 62
    9
 10
289.33692519729209
 20
25
 11
289.33692519729209
 21
12.5
  0
LINE
  8
ADD_LINE
  6
DOT
 62
    9
 10
410.25538779593808
 20
25
 11
410.25538779593808
 21
12.5
  0
LINE
  8
ADD_LINE
  6
DOT
 62
    9
 10
30.270532795938095
 20
25
 11
30.270532795938095
 21
12.5
  0
TEXT
  8
_f-a_
 62
    7
 10
144.80372899661506
 20
25
 40
3
 41
0.8333333333333333
 50
0
  1
名　　称
  0
TEXT
  8
_f-a_
 62
    7
 10
274.33692519729209
 20
25
 40
3
 41
0.8333333333333333
 50
0
  1
縮　　尺
  0
TEXT
  8
_f-a_
 62
    7
 10
344.79615649661508
 20
25
 40
3
 41
0.8333333333333333
 50
0
  1
品　　番
  0
LINE
  8
ADD_LINE
  6
DOT
 62
    9
 10
30.270532795938095
 20
25
 11
410.25538779593808
 21
25
  0
LINE
  8
ADD_LINE
  6
DOT
 62
    9
 10
30.270532795938095
 20
12.5
 11
410.25538779593808
 21
12.5
  0
TEXT
  8
_0-a_
 62
    3
 10
276.08692519729209
 20
16.25
 40
5
 41
0.8
 50
0
  1
1/1
  0
TEXT
  8
_0-a_
 62
    3
 10
342.04615649661508
 20
16.25
 40
5
 41
0.8
 50
0
  1
E89-105
  0
LINE
  8
_0-1_一般図
  6
CONTINUOUS
 62
    7
 10
219.5
 20
174.14605096506372
 11
130.5
 21
105.85394903493625
  0
ARC
  8
_0-1_一般図
  6
CONTINUOUS
 62
    7
 10
308.24989692766252
 20
138.45991168023522
 40
10
 50
66.469234390051881
 51
75
  0
ARC
  8
_0-1_一般図
  6
CONTINUOUS
 62
    7
 10
291.16783995089611
 20
74.708807145156754
 40
10
 50
255
 51
263.53076560994816
  0
ARC
  8
_0-1_一般図
  6
CONTINUOUS
 62
    7
 10
269.49688029973998
 20
150.39666546057205
 40
10
 50
43.211669382948614
 51
74.999999999999986
  0
LINE
  8
_0-1_一般図
  6
CONTINUOUS
 62
    7
 10
130.5
 20
105.85394903493625
 11
249.05017573664088
 21
74.088525183735669
  0
ARC
  8
_0-1_一般図
  6
CONTINUOUS
 62
    7
 10
251.63836618766612
 20
83.747783446626357
 40
10
 50
255
 51
286.78833061705143
  0
LINE
  8
_0-1_一般図
  6
CONTINUOUS
 62
    7
 10
288.57964949987087
 20
65.049548882266095
 11
254.52673433265448
 21
74.17400000124718
  0
LINE
  8
_0-1_一般図
  6
CONTINUOUS
 62
    7
 10
310.83808737868765
 20
148.11916994312594
 11
276.78517221147132
 21
157.24362106210708
  0
LINE
  8
_0-1_一般図
  6
CONTINUOUS
 62
    7
 10
219.5
 20
174.14605096506372
 11
272.08507075076517
 21
160.05592372346268
  0
LINE
  8
_0-1_一般図
  6
CONTINUOUS
 62
    7
 10
312.24231129851529
 20
147.62836997437651
 11
316.19401680549618
 21
145.90759584318695
  0
LINE
  8
_0-1_一般図
  6
CONTINUOUS
 62
    7
 10
290.04114307141811
 20
64.772482163465838
 11
294.32380749433321
 21
64.286863521760665
  0
LINE
  8
_0-1_一般図
  6
CONTINUOUS
 62
    7
 10
316.19401680549618
 20
145.90759584318695
 11
294.32380749433321
 21
64.286863521760665
  0
LINE
  8
_0-1_一般図
  6
CENTER1
 62
    4
 10
175
 20
139.99999999999997
 11
311.08838297926502
 21
103.53522768144859
  0
LINE
  8
_0-1_一般図
  6
CONTINUOUS
 62
    7
 10
130.5
 20
105.85394903493625
 11
130.5
 21
233.85394903493619
  0
LINE
  8
_0-1_一般図
  6
CONTINUOUS
 62
    7
 10
130.50000000000003
 20
233.85394903493619
 11
219.50000000000006
 21
233.85394903493619
  0
LINE
  8
_0-1_一般図
  6
CENTER1
 62
    4
 10
175
 20
241.33140609691333
 11
175
 21
139.99999999999997
  0
LINE
  8
_0-1_一般図
  6
CONTINUOUS
 62
    7
 10
219.5
 20
174.14605096506372
 11
219.5
 21
233.85394903493619
  0
LINE
  8
_0-1_一般図
  6
CONTINUOUS
 62
    5
 10
276.27028414140551
 20
155.32203262441044
 11
255.1440706400366
 21
76.477930465754071
  0
LINE
  8
_0-1_一般図
  6
CONTINUOUS
 62
    5
 10
311.04361388781194
 20
146.0045470007197
 11
289.91740038644298
 21
67.160444842063299
  0
LINE
  8
_0-9_
  6
CONTINUOUS
 62
    4
 10
131.80000000000007
 20
246.85394903493619
 11
131.80000000000007
 21
234.85394903493619
  0
LINE
  8
_0-9_
  6
CONTINUOUS
 62
    4
 10
218.19999999999999
 20
246.85394903493619
 11
218.19999999999999
 21
234.85394903493619
  0
LINE
  8
_0-9_
  6
CONTINUOUS
 62
    4
 10
130.5
 20
254.85394903493619
 11
130.5
 21
234.85394903493619
  0
LINE
  8
_0-9_
  6
CONTINUOUS
 62
    4
 10
219.50000000000006
 20
254.85394903493619
 11
219.50000000000006
 21
234.85394903493619
  0
POINT
  8
_0-9_
 62
    4
 10
118.49999999999999
 20
105.85394903493625
  0
POINT
  8
_0-9_
 62
    4
 10
118.5
 20
233.85394903493619
  0
LINE
  8
_0-9_
  6
CONTINUOUS
 62
    4
 10
117.49999999999999
 20
105.85394903493625
 11
129.5
 21
105.85394903493625
  0
LINE
  8
_0-9_
  6
CONTINUOUS
 62
    4
 10
117.5
 20
233.85394903493619
 11
129.5
 21
233.85394903493619
  0
LINE
  8
_0-9_
  6
CONTINUOUS
 62
    4
 10
118.49999999999999
 20
105.85394903493625
 11
118.5
 21
233.85394903493619
  0
TEXT
  8
_0-9_
 62
    3
 10
117.99999999999999
 20
166.60394903493622
 40
5
 41
0.8
 50
90
  1
128
  0
POINT
  8
_0-9_
 62
    4
 10
127.39417145876975
 20
94.262839119467429
  0
POINT
  8
_0-9_
 62
    4
 10
251.03267722377052
 20
61.134001346344775
  0
LINE
  8
_0-9_
  6
CONTINUOUS
 62
    4
 10
127.13535241366722
 20
93.296913293178363
 11
130.24118095489746
 21
104.88802320864718
  0
LINE
  8
_0-9_
  6
CONTINUOUS
 62
    4
 10
250.77385817866798
 20
60.168075520055709
 11
254.267915287552
 21
73.208074174958128
  0
LINE
  8
_0-9_
  6
CONTINUOUS
 62
    4
 10
127.39417145876975
 20
94.262839119467429
 11
251.03267722377052
 21
61.134001346344775
  0
TEXT
  8
_0-9_
 62
    3
 10
186.2035749283819
 20
79.022545042633823
 40
5
 41
0.8
 50
-15.000000000000041
  1
128
  0
POINT
  8
_0-9_
 62
    4
 10
290.63563610162225
 20
50.522420497141439
  0
LINE
  8
_0-9_
  6
CONTINUOUS
 62
    4
 10
290.37681705651971
 20
49.556494670852373
 11
294.06498844923067
 21
63.320937695471585
  0
LINE
  8
_0-9_
  6
CONTINUOUS
 62
    4
 10
251.03267722377052
 20
61.134001346344775
 11
290.63563610162225
 21
50.522420497141439
  0
TEXT
  8
_0-9_
 62
    3
 10
268.91097380438339
 20
56.861164305730497
 40
5
 41
0.8
 50
-15.000000000000028
  1
41
  0
POINT
  8
_0-9_
 62
    4
 10
131.80000000000001
 20
245.85394903493619
  0
POINT
  8
_0-9_
 62
    4
 10
218.20000000000005
 20
245.85394903493619
  0
POINT
  8
_0-9_
 62
    4
 10
130.50000000000003
 20
253.85394903493619
  0
POINT
  8
_0-9_
 62
    4
 10
219.50000000000003
 20
253.85394903493619
  0
LINE
  8
_0-9_
  6
CONTINUOUS
 62
    4
 10
131.80000000000001
 20
245.85394903493619
 11
218.20000000000005
 21
245.85394903493619
  0
TEXT
  8
_0-9_
 62
    3
 10
168.37500000000003
 20
246.35394903493619
 40
5
 41
0.8
 50
0
  1
φ86.4
  0
LINE
  8
_0-9_
  6
CONTINUOUS
 62
    4
 10
130.50000000000003
 20
253.85394903493619
 11
219.50000000000003
 21
253.85394903493619
  0
TEXT
  8
_0-9_
 62
    3
 10
170.62500000000003
 20
254.35394903493619
 40
5
 41
0.8
 50
0
  1
φ89
  0
TEXT
  8
_0-a_
 62
    3
 10
134.30372897562847
 20
16.25
 40
5
 41
0.8
 50
0
  1
１０５°エルボ
  0
TEXT
  8
_0-9_
 62
    3
 10
236.31325624100469
 20
192.56188304588721
 40
5
 41
0.8
 50
-52.500000000000021
  1
105ﾟ
  0
ARC
  8
_0-9_
  6
CONTINUOUS
 62
    4
 10
219.5
 20
174.14605096506372
 40
24.049701253880258
 50
344.99999999999989
 51
90
  0
POINT
  8
_0-9_
 62
    4
 10
242.73022755565952
 20
167.92153025153351
  0
POINT
  8
_0-9_
 62
    4
 10
219.5
 20
198.19575221894399
  0
ENDSEC
  0
EOF
