  0
SECTION
  2
HEADER
  9
$ACADVER
  1
AC1009
  9
$INSBASE
 10
0
 20
0
 30
0
  9
$EXTMIN
 10
0
 20
0
  9
$EXTMAX
 10
840
 20
594
  9
$LIMMIN
 10
0
 20
0
  9
$LIMMAX
 10
840
 20
594
  9
$LTSCALE
 40
2
  0
ENDSEC
  0
SECTION
  2
TABLES
  0
TABLE
  2
LTYPE
 70
     9
  0
LTYPE
  2
CONTINUOUS
 70
    64
  3
実線
 72
    65
 73
     0
 40
0.0
  0
LTYPE
  2
DASHED1
 70
    64
  3
--  --  --  --  --  --  --  --  
 72
    65
 73
     2
 40
2.5
 49
1.25
 49
-1.25
  0
LTYPE
  2
DASHED2
 70
    64
  3
----    ----    ----    ----    
 72
    65
 73
     2
 40
5.0
 49
2.5
 49
-2.5
  0
LTYPE
  2
DASHED3
 70
    64
  3
------  ------  ------  ------  
 72
    65
 73
     2
 40
5.0
 49
3.75
 49
-1.25
  0
LTYPE
  2
CENTER1
 70
    64
  3
----- - ----- - ----- - ----- - 
 72
    65
 73
     4
 40
10.0
 49
6.25
 49
-1.25
 49
1.25
 49
-1.25
  0
LTYPE
  2
CENTER2
 70
    64
  3
----------  --  ----------  --  
 72
    65
 73
     4
 40
20.0
 49
12.5
 49
-2.5
 49
2.5
 49
-2.5
  0
LTYPE
  2
PHANTOM1
 70
    64
  3
--- - - --- - - --- - - --- - - 
 72
    65
 73
     6
 40
10.0
 49
3.25
 49
-1.25
 49
1.25
 49
-1.25
 49
1.25
 49
-1.25
  0
LTYPE
  2
PHANTOM2
 70
    64
  3
--------  -  -  --------  -  -  
 72
    65
 73
     6
 40
20.0
 49
10.0
 49
-2.5
 49
1.25
 49
-2.5
 49
1.25
 49
-2.5
  0
LTYPE
  2
DOT
 70
    64
  3
-   -   -   -   -   -   -   -   
 72
    65
 73
     2
 40
2.5
 49
0.625
 49
-1.875
  0
LTYPE
  2
DUMMY
 70
    64
  3
ダミー
 72
    65
 73
     0
 40
0.0
  0
LTYPE
  2
RAND1
 70
    64
  3
ランダム線1
 72
    65
 73
     4
 40
10.0
 49
1.0
 49
-2.0
 49
3.0
 49
-4.0
  0
LTYPE
  2
RAND2
 70
    64
  3
ランダム線2
 72
    65
 73
     4
 40
14.0
 49
2.0
 49
-3.0
 49
4.0
 49
-5.0
  0
LTYPE
  2
RAND3
 70
    64
  3
ランダム線3
 72
    65
 73
     4
 40
18.0
 49
3.0
 49
-4.0
 49
5.0
 49
-6.0
  0
LTYPE
  2
RAND4
 70
    64
  3
ランダム線4
 72
    65
 73
     4
 40
22.0
 49
4.0
 49
-5.0
 49
6.0
 49
-7.0
  0
LTYPE
  2
RAND5
 70
    64
  3
ランダム線5
 72
    65
 73
     4
 40
26.0
 49
5.0
 49
-6.0
 49
7.0
 49
-8.0
  0
LTYPE
  2
LONG1
 70
    64
  3
----------  --  ----------  --  
 72
    65
 73
     4
 40
40.0
 49
32.5
 49
-2.5
 49
2.5
 49
-2.5
  0
LTYPE
  2
LONG2
 70
    64
  3
--------  -  -  --------  -  -  
 72
    65
 73
     6
 40
40.0
 49
30.0
 49
-2.5
 49
1.25
 49
-2.5
 49
1.25
 49
-2.5
  0
LTYPE
  2
LONG3
 70
    64
  3
+++++++++++++++..+++++++++++++++
 72
    65
 73
     2
 40
40.0
 49
37.5
 49
-2.5
  0
LTYPE
  2
LONG4
 70
    64
  3
+++++++++++++++..+++++++++++++++
 72
    65
 73
     2
 40
80.0
 49
75.0
 49
-5.0
  0
LTYPE
  2
LONG5
 70
    64
  3
----------  --  ----------  --  
 72
    65
 73
     4
 40
60.0
 49
37.5
 49
-7.5
 49
7.5
 49
-7.5
  0
LTYPE
  2
dashed
 70
   64
  3
-------   -------------   ------
 72
   65
 73
    2
 40
7.5
 49
6
 49
-1.5
  0
LTYPE
  2
dashed_spaced
 70
   64
  3
----        --------        ----
 72
   65
 73
    2
 40
12
 49
6
 49
-6
  0
LTYPE
  2
long_dashed_dotted
 70
   64
  3
------------- --- --------------
 72
   65
 73
    4
 40
15.25
 49
12
 49
-1.5
 49
0.25
 49
-1.5
  0
LTYPE
  2
long_dashed_double-dotted
 70
   64
  3
----------- --- --- ------------
 72
   65
 73
    6
 40
17
 49
12
 49
-1.5
 49
0.25
 49
-1.5
 49
0.25
 49
-1.5
  0
LTYPE
  2
long_dashed_triplicate-dotted
 70
   64
  3
--------- --- --- --- ----------
 72
   65
 73
    8
 40
18.75
 49
12
 49
-1.5
 49
0.25
 49
-1.5
 49
0.25
 49
-1.5
 49
0.25
 49
-1.5
  0
LTYPE
  2
dotted
 70
   64
  3
   -       -       -       -    
 72
   65
 73
    2
 40
1.75
 49
0.25
 49
-1.5
  0
LTYPE
  2
chain
 70
   64
  3
-------------- -- --------------
 72
   65
 73
    4
 40
18.5
 49
12
 49
-1.5
 49
3.5
 49
-1.5
  0
LTYPE
  2
chain_double_dash
 70
   64
  3
------------ -- -- -------------
 72
   65
 73
    6
 40
23.5
 49
12
 49
-1.5
 49
3.5
 49
-1.5
 49
3.5
 49
-1.5
  0
LTYPE
  2
dashed_dotted
 70
   64
  3
-----------     -     ----------
 72
   65
 73
    4
 40
9.25
 49
6
 49
-1.5
 49
0.25
 49
-1.5
  0
LTYPE
  2
double-dashed_dotted
 70
   64
  3
------   -----------   -   -----
 72
   65
 73
    6
 40
16.75
 49
6
 49
-1.5
 49
6
 49
-1.5
 49
0.25
 49
-1.5
  0
LTYPE
  2
dashed_double-dotted
 70
   64
  3
---------    -    -    ---------
 72
   65
 73
    6
 40
11
 49
6
 49
-1.5
 49
0.25
 49
-1.5
 49
0.25
 49
-1.5
  0
LTYPE
  2
double-dashed_double-dotted
 70
   64
  3
-----   ---------   -   -   ----
 72
   65
 73
    8
 40
18.5
 49
6
 49
-1.5
 49
6
 49
-1.5
 49
0.25
 49
-1.5
 49
0.25
 49
-1.5
  0
LTYPE
  2
dashed_triplicate-dotted
 70
   64
  3
-------    -    -    -    ------
 72
   65
 73
    8
 40
12.75
 49
6
 49
-1.5
 49
0.25
 49
-1.5
 49
0.25
 49
-1.5
 49
0.25
 49
-1.5
  0
LTYPE
  2
double-dashed_triplicate-dotted
 70
   64
  3
-----  ---------  -  -  -  -----
 72
   65
 73
   10
 40
20.25
 49
6
 49
-1.5
 49
6
 49
-1.5
 49
0.25
 49
-1.5
 49
0.25
 49
-1.5
 49
0.25
 49
-1.5
  0
LTYPE
  2
undefined
 70
   64
  3
--------------------------------
 72
   65
 73
    0
 40
0
  0
ENDTAB
  0
TABLE
  2
STYLE
  5
3
100
AcDbSymbolTable
 70
     1
  0
STYLE
  5
10
100
AcDbSymbolTableRecord
100
AcDbTextStyleTableRecord
  2
STANDARD
 70
     0
 40
0.0
 41
1.0
 50
0.0
 71
     0
 42
0.2
  3
txt
  4
bigfont.shx
  0
STYLE
  5
26
100
AcDbSymbolTableRecord
100
AcDbTextStyleTableRecord
  2
TATEGAKI
 70
    68
 40
0.0
 41
1.0
 50
0.0
 71
     0
 42
1.0
  3
txt
  4
bigfont.shx
  0
ENDTAB
  0
TABLE
  2
LAYER
 70
    6
  0
LAYER
  2
_0-1_一般図
 70
   64
 62
    7
  6
CONTINUOUS
  0
LAYER
  2
_0-9_
 70
   64
 62
    7
  6
CONTINUOUS
  0
LAYER
  2
_0-a_
 70
   64
 62
    7
  6
CONTINUOUS
  0
LAYER
  2
_f-1_一般図
 70
   64
 62
    7
  6
CONTINUOUS
  0
LAYER
  2
_f-a_
 70
   64
 62
    7
  6
CONTINUOUS
  0
LAYER
  2
ADD_LINE
 70
   64
 62
    7
  6
CONTINUOUS
  0
ENDTAB
  0
ENDSEC
  0
SECTION
  2
BLOCKS
  0
ENDSEC
  0
SECTION
  2
ENTITIES
  0
LINE
  8
ADD_LINE
  6
DOT
 62
    9
 10
538.67385039458418
 20
50
 11
538.67385039458418
 21
25
  0
LINE
  8
ADD_LINE
  6
DOT
 62
    9
 10
578.67385039458418
 20
50
 11
578.67385039458418
 21
25
  0
LINE
  8
ADD_LINE
  6
DOT
 62
    9
 10
820.51077559187615
 20
50
 11
820.51077559187615
 21
25
  0
LINE
  8
ADD_LINE
  6
DOT
 62
    9
 10
60.54106559187619
 20
50
 11
60.54106559187619
 21
25
  0
TEXT
  8
_f-a_
 62
    7
 10
289.60745799323013
 20
50
 40
6
 41
0.8333333333333333
 50
0
  1
名　　称
  0
TEXT
  8
_f-a_
 62
    7
 10
548.67385039458418
 20
50
 40
6
 41
0.8333333333333333
 50
0
  1
縮　　尺
  0
TEXT
  8
_f-a_
 62
    7
 10
689.59231299323017
 20
50
 40
6
 41
0.8333333333333333
 50
0
  1
品　　番
  0
LINE
  8
ADD_LINE
  6
DOT
 62
    9
 10
60.54106559187619
 20
50
 11
820.51077559187615
 21
50
  0
LINE
  8
ADD_LINE
  6
DOT
 62
    9
 10
60.54106559187619
 20
25
 11
820.51077559187615
 21
25
  0
TEXT
  8
_0-a_
 62
    3
 10
552.17385039458418
 20
32.5
 40
10
 41
0.8
 50
0
  1
1/2
  0
TEXT
  8
_0-a_
 62
    3
 10
684.09231299323017
 20
32.5
 40
10
 41
0.8
 50
0
  1
E89-135
  0
LINE
  8
_0-1_一般図
  6
CONTINUOUS
 62
    7
 10
325.5
 20
449.56749647439727
 11
414.50000000000006
 21
449.56749647439727
  0
LINE
  8
_0-1_一般図
  6
CONTINUOUS
 62
    7
 10
325.5
 20
331.56749647439733
 11
325.5
 21
449.56749647439733
  0
LINE
  8
_0-1_一般図
  6
CONTINUOUS
 62
    7
 10
495.73890758207074
 20
285.0722755999725
 11
470.81044353383555
 21
310.00073964820768
  0
LINE
  8
_0-1_一般図
  6
CONTINUOUS
 62
    7
 10
434.92772440002767
 20
224.26109241792938
 11
409.99926035179243
 21
249.18955646616456
  0
ARC
  8
_0-1_一般図
  6
CONTINUOUS
 62
    7
 10
412.28475188544036
 20
258.92488021268804
 40
10
 50
225
 51
256.78833061705143
  0
LINE
  8
_0-1_一般図
  6
CONTINUOUS
 62
    7
 10
325.5
 20
331.56749647439733
 11
405.21368407357483
 21
251.85381240082256
  0
ARC
  8
_0-1_一般図
  6
CONTINUOUS
 62
    7
 10
461.07511978731202
 20
307.71524811455981
 40
10
 50
13.211669382948607
 51
44.999999999999986
  0
ARC
  8
_0-1_一般図
  6
CONTINUOUS
 62
    7
 10
441.9987922118932
 20
231.33216022979485
 40
10
 50
225
 51
233.53076560994813
  0
ARC
  8
_0-1_一般図
  6
CONTINUOUS
 62
    7
 10
488.66783977020532
 20
278.00120778810691
 40
10
 50
36.469234390051874
 51
45
  0
LINE
  8
_0-1_一般図
  6
CONTINUOUS
 62
    7
 10
414.5
 20
368.4325035256029
 11
414.5
 21
449.56749647439727
  0
LINE
  8
_0-1_一般図
  6
CONTINUOUS
 62
    7
 10
414.5
 20
368.4325035256029
 11
468.14618759917749
 21
314.78631592642529
  0
LINE
  8
_0-1_一般図
  6
CENTER1
 62
    4
 10
370
 20
457.04495353637446
 11
370
 21
350
  0
LINE
  8
_0-1_一般図
  6
CONTINUOUS
 62
    7
 10
325.5
 20
331.56749647439733
 11
414.5
 21
368.4325035256029
  0
LINE
  8
_0-1_一般図
  6
CONTINUOUS
 62
    7
 10
496.70960118486857
 20
283.94511839894506
 11
499.27149147659412
 21
280.47903153366934
  0
LINE
  8
_0-1_一般図
  6
CONTINUOUS
 62
    7
 10
436.05488160105511
 20
223.29039881513154
 11
439.52096846633083
 21
220.72850852340605
  0
LINE
  8
_0-1_一般図
  6
CONTINUOUS
 62
    7
 10
499.27149147659412
 20
280.47903153366934
 11
439.52096846633083
 21
220.72850852340605
  0
LINE
  8
_0-1_一般図
  6
CENTER1
 62
    4
 10
370
 20
350
 11
473.66369879978743
 21
246.33630120021257
  0
LINE
  8
_0-1_一般図
  6
CONTINUOUS
 62
    5
 10
469.40374316620466
 20
308.59403928057679
 11
411.68585450891726
 21
250.87615062328939
  0
LINE
  8
_0-1_一般図
  6
CONTINUOUS
 62
    5
 10
494.85958728892035
 20
283.13819515786111
 11
437.14169863163289
 21
225.4203065005737
  0
LINE
  8
_0-9_
  6
CONTINUOUS
 62
    4
 10
326.80000000000007
 20
475.56749647439727
 11
326.80000000000007
 21
451.56749647439727
  0
LINE
  8
_0-9_
  6
CONTINUOUS
 62
    4
 10
413.19999999999999
 20
475.56749647439727
 11
413.19999999999999
 21
451.56749647439727
  0
LINE
  8
_0-9_
  6
CONTINUOUS
 62
    4
 10
325.5
 20
491.56749647439727
 11
325.5
 21
451.56749647439727
  0
LINE
  8
_0-9_
  6
CONTINUOUS
 62
    4
 10
414.50000000000006
 20
491.56749647439727
 11
414.50000000000006
 21
451.56749647439727
  0
POINT
  8
_0-9_
 62
    4
 10
309.5
 20
331.56749647439733
  0
POINT
  8
_0-9_
 62
    4
 10
309.5
 20
449.56749647439727
  0
LINE
  8
_0-9_
  6
CONTINUOUS
 62
    4
 10
307.5
 20
331.56749647439733
 11
323.5
 21
331.56749647439733
  0
LINE
  8
_0-9_
  6
CONTINUOUS
 62
    4
 10
307.5
 20
449.56749647439727
 11
323.5
 21
449.56749647439727
  0
LINE
  8
_0-9_
  6
CONTINUOUS
 62
    4
 10
309.5
 20
331.56749647439733
 11
309.5
 21
449.56749647439727
  0
TEXT
  8
_0-9_
 62
    3
 10
308.5
 20
384.06749647439733
 40
10
 41
0.8
 50
90
  1
118
  0
POINT
  8
_0-9_
 62
    4
 10
314.18629150101526
 20
320.25378797541259
  0
POINT
  8
_0-9_
 62
    4
 10
397.62489168102786
 20
236.81518779539994
  0
LINE
  8
_0-9_
  6
CONTINUOUS
 62
    4
 10
312.77207793864216
 20
318.83957441303949
 11
324.08578643762689
 21
330.15328291202422
  0
LINE
  8
_0-9_
  6
CONTINUOUS
 62
    4
 10
396.21067811865481
 20
235.40097423302686
 11
408.58504678941938
 21
247.77534290379145
  0
LINE
  8
_0-9_
  6
CONTINUOUS
 62
    4
 10
314.18629150101526
 20
320.25378797541259
 11
397.62489168102786
 21
236.81518779539994
  0
TEXT
  8
_0-9_
 62
    3
 10
352.01650429449558
 20
283.83778874430539
 40
10
 41
0.8
 50
-44.999999999999993
  1
118
  0
POINT
  8
_0-9_
 62
    4
 10
426.61626970967632
 20
207.82380976675154
  0
LINE
  8
_0-9_
  6
CONTINUOUS
 62
    4
 10
425.20205614730321
 20
206.40959620437843
 11
438.10675490395772
 21
219.31429496103297
  0
LINE
  8
_0-9_
  6
CONTINUOUS
 62
    4
 10
397.62489168102786
 20
236.81518779539994
 11
426.61626970967632
 21
207.82380976675154
  0
TEXT
  8
_0-9_
 62
    3
 10
409.82248365649582
 20
226.03180938230511
 40
10
 41
0.8
 50
-45.000000000000028
  1
41
  0
POINT
  8
_0-9_
 62
    4
 10
326.80000000000001
 20
473.56749647439727
  0
POINT
  8
_0-9_
 62
    4
 10
413.20000000000005
 20
473.56749647439727
  0
POINT
  8
_0-9_
 62
    4
 10
325.5
 20
489.56749647439727
  0
POINT
  8
_0-9_
 62
    4
 10
414.5
 20
489.56749647439727
  0
LINE
  8
_0-9_
  6
CONTINUOUS
 62
    4
 10
326.80000000000001
 20
473.56749647439727
 11
413.20000000000005
 21
473.56749647439727
  0
TEXT
  8
_0-9_
 62
    3
 10
356.75
 20
474.56749647439733
 40
10
 41
0.8
 50
0
  1
φ86.4
  0
LINE
  8
_0-9_
  6
CONTINUOUS
 62
    4
 10
325.5
 20
489.56749647439727
 11
414.5
 21
489.56749647439727
  0
TEXT
  8
_0-9_
 62
    3
 10
361.25
 20
490.56749647439733
 40
10
 41
0.8
 50
0
  1
φ89
  0
TEXT
  8
_0-a_
 62
    3
 10
268.60745799323013
 20
32.5
 40
10
 41
0.8
 50
0
  1
１３５°エルボ
  0
TEXT
  8
_0-9_
 62
    3
 10
442.1261426943986
 20
389.34655825823563
 40
10
 41
0.8
 50
-67.500000000000057
  1
135ﾟ
  0
ARC
  8
_0-9_
  6
CONTINUOUS
 62
    4
 10
414.5
 20
368.4325035256029
 40
32.526690047346321
 50
314.99999999999989
 51
90
  0
POINT
  8
_0-9_
 62
    4
 10
437.49984310203155
 20
345.43266042357129
  0
POINT
  8
_0-9_
 62
    4
 10
414.5
 20
400.95919357294923
  0
ENDSEC
  0
EOF
