  0
SECTION
  2
HEADER
  9
$ACADVER
  1
AC1009
  9
$INSBASE
 10
0
 20
0
 30
0
  9
$EXTMIN
 10
0
 20
0
  9
$EXTMAX
 10
840
 20
594
  9
$LIMMIN
 10
0
 20
0
  9
$LIMMAX
 10
840
 20
594
  9
$LTSCALE
 40
2
  0
ENDSEC
  0
SECTION
  2
TABLES
  0
TABLE
  2
LTYPE
 70
     9
  0
LTYPE
  2
CONTINUOUS
 70
    64
  3
実線
 72
    65
 73
     0
 40
0.0
  0
LTYPE
  2
DASHED1
 70
    64
  3
--  --  --  --  --  --  --  --  
 72
    65
 73
     2
 40
2.5
 49
1.25
 49
-1.25
  0
LTYPE
  2
DASHED2
 70
    64
  3
----    ----    ----    ----    
 72
    65
 73
     2
 40
5.0
 49
2.5
 49
-2.5
  0
LTYPE
  2
DASHED3
 70
    64
  3
------  ------  ------  ------  
 72
    65
 73
     2
 40
5.0
 49
3.75
 49
-1.25
  0
LTYPE
  2
CENTER1
 70
    64
  3
----- - ----- - ----- - ----- - 
 72
    65
 73
     4
 40
10.0
 49
6.25
 49
-1.25
 49
1.25
 49
-1.25
  0
LTYPE
  2
CENTER2
 70
    64
  3
----------  --  ----------  --  
 72
    65
 73
     4
 40
20.0
 49
12.5
 49
-2.5
 49
2.5
 49
-2.5
  0
LTYPE
  2
PHANTOM1
 70
    64
  3
--- - - --- - - --- - - --- - - 
 72
    65
 73
     6
 40
10.0
 49
3.25
 49
-1.25
 49
1.25
 49
-1.25
 49
1.25
 49
-1.25
  0
LTYPE
  2
PHANTOM2
 70
    64
  3
--------  -  -  --------  -  -  
 72
    65
 73
     6
 40
20.0
 49
10.0
 49
-2.5
 49
1.25
 49
-2.5
 49
1.25
 49
-2.5
  0
LTYPE
  2
DOT
 70
    64
  3
-   -   -   -   -   -   -   -   
 72
    65
 73
     2
 40
2.5
 49
0.625
 49
-1.875
  0
LTYPE
  2
DUMMY
 70
    64
  3
ダミー
 72
    65
 73
     0
 40
0.0
  0
LTYPE
  2
RAND1
 70
    64
  3
ランダム線1
 72
    65
 73
     4
 40
10.0
 49
1.0
 49
-2.0
 49
3.0
 49
-4.0
  0
LTYPE
  2
RAND2
 70
    64
  3
ランダム線2
 72
    65
 73
     4
 40
14.0
 49
2.0
 49
-3.0
 49
4.0
 49
-5.0
  0
LTYPE
  2
RAND3
 70
    64
  3
ランダム線3
 72
    65
 73
     4
 40
18.0
 49
3.0
 49
-4.0
 49
5.0
 49
-6.0
  0
LTYPE
  2
RAND4
 70
    64
  3
ランダム線4
 72
    65
 73
     4
 40
22.0
 49
4.0
 49
-5.0
 49
6.0
 49
-7.0
  0
LTYPE
  2
RAND5
 70
    64
  3
ランダム線5
 72
    65
 73
     4
 40
26.0
 49
5.0
 49
-6.0
 49
7.0
 49
-8.0
  0
LTYPE
  2
LONG1
 70
    64
  3
----------  --  ----------  --  
 72
    65
 73
     4
 40
40.0
 49
32.5
 49
-2.5
 49
2.5
 49
-2.5
  0
LTYPE
  2
LONG2
 70
    64
  3
--------  -  -  --------  -  -  
 72
    65
 73
     6
 40
40.0
 49
30.0
 49
-2.5
 49
1.25
 49
-2.5
 49
1.25
 49
-2.5
  0
LTYPE
  2
LONG3
 70
    64
  3
+++++++++++++++..+++++++++++++++
 72
    65
 73
     2
 40
40.0
 49
37.5
 49
-2.5
  0
LTYPE
  2
LONG4
 70
    64
  3
+++++++++++++++..+++++++++++++++
 72
    65
 73
     2
 40
80.0
 49
75.0
 49
-5.0
  0
LTYPE
  2
LONG5
 70
    64
  3
----------  --  ----------  --  
 72
    65
 73
     4
 40
60.0
 49
37.5
 49
-7.5
 49
7.5
 49
-7.5
  0
LTYPE
  2
dashed
 70
   64
  3
-------   -------------   ------
 72
   65
 73
    2
 40
7.5
 49
6
 49
-1.5
  0
LTYPE
  2
dashed_spaced
 70
   64
  3
----        --------        ----
 72
   65
 73
    2
 40
12
 49
6
 49
-6
  0
LTYPE
  2
long_dashed_dotted
 70
   64
  3
------------- --- --------------
 72
   65
 73
    4
 40
15.25
 49
12
 49
-1.5
 49
0.25
 49
-1.5
  0
LTYPE
  2
long_dashed_double-dotted
 70
   64
  3
----------- --- --- ------------
 72
   65
 73
    6
 40
17
 49
12
 49
-1.5
 49
0.25
 49
-1.5
 49
0.25
 49
-1.5
  0
LTYPE
  2
long_dashed_triplicate-dotted
 70
   64
  3
--------- --- --- --- ----------
 72
   65
 73
    8
 40
18.75
 49
12
 49
-1.5
 49
0.25
 49
-1.5
 49
0.25
 49
-1.5
 49
0.25
 49
-1.5
  0
LTYPE
  2
dotted
 70
   64
  3
   -       -       -       -    
 72
   65
 73
    2
 40
1.75
 49
0.25
 49
-1.5
  0
LTYPE
  2
chain
 70
   64
  3
-------------- -- --------------
 72
   65
 73
    4
 40
18.5
 49
12
 49
-1.5
 49
3.5
 49
-1.5
  0
LTYPE
  2
chain_double_dash
 70
   64
  3
------------ -- -- -------------
 72
   65
 73
    6
 40
23.5
 49
12
 49
-1.5
 49
3.5
 49
-1.5
 49
3.5
 49
-1.5
  0
LTYPE
  2
dashed_dotted
 70
   64
  3
-----------     -     ----------
 72
   65
 73
    4
 40
9.25
 49
6
 49
-1.5
 49
0.25
 49
-1.5
  0
LTYPE
  2
double-dashed_dotted
 70
   64
  3
------   -----------   -   -----
 72
   65
 73
    6
 40
16.75
 49
6
 49
-1.5
 49
6
 49
-1.5
 49
0.25
 49
-1.5
  0
LTYPE
  2
dashed_double-dotted
 70
   64
  3
---------    -    -    ---------
 72
   65
 73
    6
 40
11
 49
6
 49
-1.5
 49
0.25
 49
-1.5
 49
0.25
 49
-1.5
  0
LTYPE
  2
double-dashed_double-dotted
 70
   64
  3
-----   ---------   -   -   ----
 72
   65
 73
    8
 40
18.5
 49
6
 49
-1.5
 49
6
 49
-1.5
 49
0.25
 49
-1.5
 49
0.25
 49
-1.5
  0
LTYPE
  2
dashed_triplicate-dotted
 70
   64
  3
-------    -    -    -    ------
 72
   65
 73
    8
 40
12.75
 49
6
 49
-1.5
 49
0.25
 49
-1.5
 49
0.25
 49
-1.5
 49
0.25
 49
-1.5
  0
LTYPE
  2
double-dashed_triplicate-dotted
 70
   64
  3
-----  ---------  -  -  -  -----
 72
   65
 73
   10
 40
20.25
 49
6
 49
-1.5
 49
6
 49
-1.5
 49
0.25
 49
-1.5
 49
0.25
 49
-1.5
 49
0.25
 49
-1.5
  0
LTYPE
  2
undefined
 70
   64
  3
--------------------------------
 72
   65
 73
    0
 40
0
  0
ENDTAB
  0
TABLE
  2
STYLE
  5
3
100
AcDbSymbolTable
 70
     1
  0
STYLE
  5
10
100
AcDbSymbolTableRecord
100
AcDbTextStyleTableRecord
  2
STANDARD
 70
     0
 40
0.0
 41
1.0
 50
0.0
 71
     0
 42
0.2
  3
txt
  4
bigfont.shx
  0
STYLE
  5
26
100
AcDbSymbolTableRecord
100
AcDbTextStyleTableRecord
  2
TATEGAKI
 70
    68
 40
0.0
 41
1.0
 50
0.0
 71
     0
 42
1.0
  3
txt
  4
bigfont.shx
  0
ENDTAB
  0
TABLE
  2
LAYER
 70
    6
  0
LAYER
  2
_0-1_一般図
 70
   64
 62
    7
  6
CONTINUOUS
  0
LAYER
  2
_0-9_
 70
   64
 62
    7
  6
CONTINUOUS
  0
LAYER
  2
_0-a_
 70
   64
 62
    7
  6
CONTINUOUS
  0
LAYER
  2
_f-1_一般図
 70
   64
 62
    7
  6
CONTINUOUS
  0
LAYER
  2
_f-a_
 70
   64
 62
    7
  6
CONTINUOUS
  0
LAYER
  2
ADD_LINE
 70
   64
 62
    7
  6
CONTINUOUS
  0
ENDTAB
  0
ENDSEC
  0
SECTION
  2
BLOCKS
  0
ENDSEC
  0
SECTION
  2
ENTITIES
  0
LINE
  8
ADD_LINE
  6
DOT
 62
    9
 10
538.67385039458418
 20
50
 11
538.67385039458418
 21
25
  0
LINE
  8
ADD_LINE
  6
DOT
 62
    9
 10
578.67385039458418
 20
50
 11
578.67385039458418
 21
25
  0
LINE
  8
ADD_LINE
  6
DOT
 62
    9
 10
820.51077559187615
 20
50
 11
820.51077559187615
 21
25
  0
LINE
  8
ADD_LINE
  6
DOT
 62
    9
 10
60.541065591876247
 20
50.000000000000057
 11
60.541065591876247
 21
25
  0
TEXT
  8
_f-a_
 62
    7
 10
289.60745799323013
 20
50.000000000000057
 40
6
 41
0.8333333333333333
 50
0
  1
名　　称
  0
LINE
  8
ADD_LINE
  6
DOT
 62
    9
 10
60.541065591876247
 20
50
 11
820.51077559187615
 21
50
  0
LINE
  8
ADD_LINE
  6
DOT
 62
    9
 10
60.541065591876247
 20
25
 11
820.51077559187615
 21
25
  0
TEXT
  8
_f-a_
 62
    7
 10
548.67385039458418
 20
50
 40
6
 41
0.8333333333333333
 50
0
  1
縮　　尺
  0
TEXT
  8
_f-a_
 62
    7
 10
689.59231299323017
 20
50
 40
6
 41
0.8333333333333333
 50
0
  1
品　　番
  0
TEXT
  8
_0-a_
 62
    3
 10
273.10745799323018
 20
32.5
 40
10
 41
0.8
 50
0
  1
９０°エルボ
  0
TEXT
  8
_0-a_
 62
    3
 10
552.17385039458418
 20
32.5
 40
10
 41
0.8
 50
0
  1
1/2
  0
TEXT
  8
_0-a_
 62
    3
 10
684.09231299323017
 20
32.5
 40
10
 41
0.8
 50
0
  1
E114-90
  0
LINE
  8
_0-1_一般図
  6
CONTINUOUS
 62
    7
 10
407.00000000000057
 20
325.91605043351808
 11
293.00000000000057
 21
214.08394956648186
  0
LINE
  8
_0-1_一般図
  6
CENTER1
 62
    4
 10
350.00000000000057
 20
409.3050785012008
 11
350.00000000000057
 21
269.99999999999994
  0
LINE
  8
_0-1_一般図
  6
CONTINUOUS
 62
    7
 10
293.00000000000057
 20
403.08394956648186
 11
407.00000000000057
 21
403.08394956648186
  0
LINE
  8
_0-1_一般図
  6
CONTINUOUS
 62
    7
 10
407.00000000000057
 20
325.91605043351808
 11
407.00000000000057
 21
403.08394956648186
  0
LINE
  8
_0-1_一般図
  6
CONTINUOUS
 62
    7
 10
293.00000000000057
 20
214.08394956648181
 11
293.00000000000057
 21
403.08394956648181
  0
ARC
  8
_0-1_一般図
  6
CONTINUOUS
 62
    7
 10
527.43561181787732
 20
221.28471242548198
 40
10
 50
268.89999999999998
 51
277.43076560994814
  0
LINE
  8
_0-1_一般図
  6
CONTINUOUS
 62
    7
 10
527.24363739388048
 20
211.28655530426556
 11
481.99780524307079
 21
212.15531966354729
  0
ARC
  8
_0-1_一般図
  6
CONTINUOUS
 62
    7
 10
529.17490009928929
 20
311.86801594370291
 40
10
 50
80.369234390051872
 51
88.900000000000006
  0
LINE
  8
_0-1_一般図
  6
CONTINUOUS
 62
    7
 10
529.36687452328613
 20
321.86617306491934
 11
484.12104237247644
 21
322.73493742420112
  0
ARC
  8
_0-1_一般図
  6
CONTINUOUS
 62
    7
 10
476.58053799835335
 20
220.56086637981218
 40
10
 50
268.89999999999998
 51
302.80126199686669
  0
LINE
  8
_0-1_一般図
  6
CONTINUOUS
 62
    7
 10
293.00000000000057
 20
214.08394956648181
 11
476.38856357435651
 21
210.56270925859576
  0
ARC
  8
_0-1_一般図
  6
CONTINUOUS
 62
    7
 10
478.38509758392422
 20
314.54354331924679
 40
10
 50
54.998738003133319
 51
88.899999999999991
  0
LINE
  8
_0-1_一般図
  6
CONTINUOUS
 62
    7
 10
407.00000000000057
 20
325.91605043351808
 11
478.57707200792112
 21
324.54170044046327
  0
LINE
  8
_0-1_一般図
  6
CONTINUOUS
 62
    7
 10
530.84788174182972
 20
321.72707940955615
 11
535.0972456088806
 21
321.00600607772571
  0
LINE
  8
_0-1_一般図
  6
CONTINUOUS
 62
    7
 10
535.0972456088806
 20
321.00600607772571
 11
533.00280464307446
 21
211.92611188525439
  0
LINE
  8
_0-1_一般図
  6
CONTINUOUS
 62
    7
 10
528.72889248699494
 20
211.36869381361527
 11
533.00280464307446
 21
211.92611188525439
  0
LINE
  8
_0-1_一般図
  6
CENTER1
 62
    4
 10
350.00000000000057
 20
269.99999999999994
 11
542.35578326331256
 21
266.3065802780709
  0
POINT
  8
_0-9_
 62
    4
 10
294.50000000000057
 20
427.08394956648186
  0
POINT
  8
_0-9_
 62
    4
 10
405.50000000000051
 20
427.08394956648186
  0
LINE
  8
_0-9_
  6
CONTINUOUS
 62
    4
 10
294.50000000000057
 20
429.08394956648186
 11
294.50000000000057
 21
405.08394956648186
  0
LINE
  8
_0-9_
  6
CONTINUOUS
 62
    4
 10
405.50000000000051
 20
429.08394956648186
 11
405.50000000000051
 21
405.08394956648181
  0
POINT
  8
_0-9_
 62
    4
 10
293.00000000000057
 20
443.08394956648186
  0
POINT
  8
_0-9_
 62
    4
 10
407.00000000000057
 20
443.08394956648186
  0
LINE
  8
_0-9_
  6
CONTINUOUS
 62
    4
 10
293.00000000000057
 20
445.08394956648186
 11
293.00000000000057
 21
405.08394956648181
  0
LINE
  8
_0-9_
  6
CONTINUOUS
 62
    4
 10
407.00000000000057
 20
445.08394956648186
 11
407.00000000000057
 21
405.08394956648186
  0
POINT
  8
_0-9_
 62
    4
 10
269.00000000000057
 20
214.08394956648181
  0
POINT
  8
_0-9_
 62
    4
 10
269.00000000000057
 20
403.08394956648181
  0
LINE
  8
_0-9_
  6
CONTINUOUS
 62
    4
 10
267.00000000000057
 20
214.08394956648181
 11
291.00000000000057
 21
214.08394956648181
  0
LINE
  8
_0-9_
  6
CONTINUOUS
 62
    4
 10
267.00000000000057
 20
403.08394956648181
 11
291.00000000000057
 21
403.08394956648181
  0
LINE
  8
_0-9_
  6
CONTINUOUS
 62
    4
 10
269.00000000000057
 20
214.08394956648181
 11
269.00000000000057
 21
403.08394956648181
  0
TEXT
  8
_0-9_
 62
    3
 10
268.00000000000057
 20
302.08394956648181
 40
10
 41
0.8
 50
90
  1
189
  0
POINT
  8
_0-9_
 62
    4
 10
292.53926138240791
 20
190.08837247556238
  0
POINT
  8
_0-9_
 62
    4
 10
481.50443097339877
 20
186.46005586202099
  0
LINE
  8
_0-9_
  6
CONTINUOUS
 62
    4
 10
292.50086649760857
 20
188.08874105131906
 11
292.96160511520111
 21
212.08431814223854
  0
LINE
  8
_0-9_
  6
CONTINUOUS
 62
    4
 10
481.46603608859937
 20
184.4604244377777
 11
481.95941035827144
 21
210.15568823930403
  0
LINE
  8
_0-9_
  6
CONTINUOUS
 62
    4
 10
292.53926138240791
 20
190.08837247556238
 11
481.50443097339877
 21
186.46005586202099
  0
TEXT
  8
_0-9_
 62
    3
 10
380.54224149151236
 20
189.39881325651129
 40
10
 41
0.8
 50
-1.1000000000000234
  1
189
  0
POINT
  8
_0-9_
 62
    4
 10
532.49503229160268
 20
185.48098629963681
  0
LINE
  8
_0-9_
  6
CONTINUOUS
 62
    4
 10
532.45663740680334
 20
183.48135487539352
 11
532.96440975827511
 21
209.92648046101107
  0
LINE
  8
_0-9_
  6
CONTINUOUS
 62
    4
 10
481.50443097339877
 20
186.46005586202099
 11
532.49503229160268
 21
185.48098629963681
  0
TEXT
  8
_0-9_
 62
    3
 10
502.76971229838341
 20
187.05192592314921
 40
10
 41
0.8
 50
-1.0999999999999792
  1
51
  0
LINE
  8
_0-1_一般図
  6
CONTINUOUS
 62
    5
 10
484.0671094141631
 20
319.92607268064813
 11
482.04610952295565
 21
214.67103904877223
  0
LINE
  8
_0-1_一般図
  6
CONTINUOUS
 62
    5
 10
530.05863217175875
 20
319.0429903302624
 11
528.03763228055141
 21
213.78795669838649
  0
LINE
  8
_0-9_
  6
CONTINUOUS
 62
    4
 10
293.00000000000057
 20
443.08394956648186
 11
407.00000000000057
 21
443.08394956648186
  0
TEXT
  8
_0-9_
 62
    3
 10
339.00000000000057
 20
444.08394956648186
 40
10
 41
0.8
 50
0
  1
φ114
  0
LINE
  8
_0-9_
  6
CONTINUOUS
 62
    4
 10
294.50000000000057
 20
427.08394956648186
 11
405.50000000000051
 21
427.08394956648186
  0
TEXT
  8
_0-9_
 62
    3
 10
339.00000000000057
 20
428.08394956648186
 40
10
 41
0.8
 50
0
  1
φ111
  0
TEXT
  8
_0-9_
 62
    3
 10
428.27339999159898
 20
362.19404566813591
 40
10
 41
0.8
 50
-45.549999999999997
  1
91.1ﾟ
  0
ARC
  8
_0-9_
  6
CONTINUOUS
 62
    4
 10
407.00000000000057
 20
325.91605043351808
 40
39.59126119555161
 50
358.90000000000003
 51
90
  0
POINT
  8
_0-9_
 62
    4
 10
446.58396500602504
 20
325.15599947718545
  0
POINT
  8
_0-9_
 62
    4
 10
407.00000000000057
 20
365.5073116290697
  0
ENDSEC
  0
EOF
