  0
SECTION
  2
HEADER
  9
$ACADVER
  1
AC1009
  9
$INSBASE
 10
0
 20
0
 30
0
  9
$EXTMIN
 10
0
 20
0
  9
$EXTMAX
 10
840
 20
594
  9
$LIMMIN
 10
0
 20
0
  9
$LIMMAX
 10
840
 20
594
  9
$LTSCALE
 40
2
  0
ENDSEC
  0
SECTION
  2
TABLES
  0
TABLE
  2
LTYPE
 70
     9
  0
LTYPE
  2
CONTINUOUS
 70
    64
  3
実線
 72
    65
 73
     0
 40
0.0
  0
LTYPE
  2
DASHED1
 70
    64
  3
--  --  --  --  --  --  --  --  
 72
    65
 73
     2
 40
2.5
 49
1.25
 49
-1.25
  0
LTYPE
  2
DASHED2
 70
    64
  3
----    ----    ----    ----    
 72
    65
 73
     2
 40
5.0
 49
2.5
 49
-2.5
  0
LTYPE
  2
DASHED3
 70
    64
  3
------  ------  ------  ------  
 72
    65
 73
     2
 40
5.0
 49
3.75
 49
-1.25
  0
LTYPE
  2
CENTER1
 70
    64
  3
----- - ----- - ----- - ----- - 
 72
    65
 73
     4
 40
10.0
 49
6.25
 49
-1.25
 49
1.25
 49
-1.25
  0
LTYPE
  2
CENTER2
 70
    64
  3
----------  --  ----------  --  
 72
    65
 73
     4
 40
20.0
 49
12.5
 49
-2.5
 49
2.5
 49
-2.5
  0
LTYPE
  2
PHANTOM1
 70
    64
  3
--- - - --- - - --- - - --- - - 
 72
    65
 73
     6
 40
10.0
 49
3.25
 49
-1.25
 49
1.25
 49
-1.25
 49
1.25
 49
-1.25
  0
LTYPE
  2
PHANTOM2
 70
    64
  3
--------  -  -  --------  -  -  
 72
    65
 73
     6
 40
20.0
 49
10.0
 49
-2.5
 49
1.25
 49
-2.5
 49
1.25
 49
-2.5
  0
LTYPE
  2
DOT
 70
    64
  3
-   -   -   -   -   -   -   -   
 72
    65
 73
     2
 40
2.5
 49
0.625
 49
-1.875
  0
LTYPE
  2
DUMMY
 70
    64
  3
ダミー
 72
    65
 73
     0
 40
0.0
  0
LTYPE
  2
RAND1
 70
    64
  3
ランダム線1
 72
    65
 73
     4
 40
10.0
 49
1.0
 49
-2.0
 49
3.0
 49
-4.0
  0
LTYPE
  2
RAND2
 70
    64
  3
ランダム線2
 72
    65
 73
     4
 40
14.0
 49
2.0
 49
-3.0
 49
4.0
 49
-5.0
  0
LTYPE
  2
RAND3
 70
    64
  3
ランダム線3
 72
    65
 73
     4
 40
18.0
 49
3.0
 49
-4.0
 49
5.0
 49
-6.0
  0
LTYPE
  2
RAND4
 70
    64
  3
ランダム線4
 72
    65
 73
     4
 40
22.0
 49
4.0
 49
-5.0
 49
6.0
 49
-7.0
  0
LTYPE
  2
RAND5
 70
    64
  3
ランダム線5
 72
    65
 73
     4
 40
26.0
 49
5.0
 49
-6.0
 49
7.0
 49
-8.0
  0
LTYPE
  2
LONG1
 70
    64
  3
----------  --  ----------  --  
 72
    65
 73
     4
 40
40.0
 49
32.5
 49
-2.5
 49
2.5
 49
-2.5
  0
LTYPE
  2
LONG2
 70
    64
  3
--------  -  -  --------  -  -  
 72
    65
 73
     6
 40
40.0
 49
30.0
 49
-2.5
 49
1.25
 49
-2.5
 49
1.25
 49
-2.5
  0
LTYPE
  2
LONG3
 70
    64
  3
+++++++++++++++..+++++++++++++++
 72
    65
 73
     2
 40
40.0
 49
37.5
 49
-2.5
  0
LTYPE
  2
LONG4
 70
    64
  3
+++++++++++++++..+++++++++++++++
 72
    65
 73
     2
 40
80.0
 49
75.0
 49
-5.0
  0
LTYPE
  2
LONG5
 70
    64
  3
----------  --  ----------  --  
 72
    65
 73
     4
 40
60.0
 49
37.5
 49
-7.5
 49
7.5
 49
-7.5
  0
LTYPE
  2
dashed
 70
   64
  3
-------   -------------   ------
 72
   65
 73
    2
 40
7.5
 49
6
 49
-1.5
  0
LTYPE
  2
dashed_spaced
 70
   64
  3
----        --------        ----
 72
   65
 73
    2
 40
12
 49
6
 49
-6
  0
LTYPE
  2
long_dashed_dotted
 70
   64
  3
------------- --- --------------
 72
   65
 73
    4
 40
15.25
 49
12
 49
-1.5
 49
0.25
 49
-1.5
  0
LTYPE
  2
long_dashed_double-dotted
 70
   64
  3
----------- --- --- ------------
 72
   65
 73
    6
 40
17
 49
12
 49
-1.5
 49
0.25
 49
-1.5
 49
0.25
 49
-1.5
  0
LTYPE
  2
long_dashed_triplicate-dotted
 70
   64
  3
--------- --- --- --- ----------
 72
   65
 73
    8
 40
18.75
 49
12
 49
-1.5
 49
0.25
 49
-1.5
 49
0.25
 49
-1.5
 49
0.25
 49
-1.5
  0
LTYPE
  2
dotted
 70
   64
  3
   -       -       -       -    
 72
   65
 73
    2
 40
1.75
 49
0.25
 49
-1.5
  0
LTYPE
  2
chain
 70
   64
  3
-------------- -- --------------
 72
   65
 73
    4
 40
18.5
 49
12
 49
-1.5
 49
3.5
 49
-1.5
  0
LTYPE
  2
chain_double_dash
 70
   64
  3
------------ -- -- -------------
 72
   65
 73
    6
 40
23.5
 49
12
 49
-1.5
 49
3.5
 49
-1.5
 49
3.5
 49
-1.5
  0
LTYPE
  2
dashed_dotted
 70
   64
  3
-----------     -     ----------
 72
   65
 73
    4
 40
9.25
 49
6
 49
-1.5
 49
0.25
 49
-1.5
  0
LTYPE
  2
double-dashed_dotted
 70
   64
  3
------   -----------   -   -----
 72
   65
 73
    6
 40
16.75
 49
6
 49
-1.5
 49
6
 49
-1.5
 49
0.25
 49
-1.5
  0
LTYPE
  2
dashed_double-dotted
 70
   64
  3
---------    -    -    ---------
 72
   65
 73
    6
 40
11
 49
6
 49
-1.5
 49
0.25
 49
-1.5
 49
0.25
 49
-1.5
  0
LTYPE
  2
double-dashed_double-dotted
 70
   64
  3
-----   ---------   -   -   ----
 72
   65
 73
    8
 40
18.5
 49
6
 49
-1.5
 49
6
 49
-1.5
 49
0.25
 49
-1.5
 49
0.25
 49
-1.5
  0
LTYPE
  2
dashed_triplicate-dotted
 70
   64
  3
-------    -    -    -    ------
 72
   65
 73
    8
 40
12.75
 49
6
 49
-1.5
 49
0.25
 49
-1.5
 49
0.25
 49
-1.5
 49
0.25
 49
-1.5
  0
LTYPE
  2
double-dashed_triplicate-dotted
 70
   64
  3
-----  ---------  -  -  -  -----
 72
   65
 73
   10
 40
20.25
 49
6
 49
-1.5
 49
6
 49
-1.5
 49
0.25
 49
-1.5
 49
0.25
 49
-1.5
 49
0.25
 49
-1.5
  0
LTYPE
  2
undefined
 70
   64
  3
--------------------------------
 72
   65
 73
    0
 40
0
  0
ENDTAB
  0
TABLE
  2
STYLE
  5
3
100
AcDbSymbolTable
 70
     1
  0
STYLE
  5
10
100
AcDbSymbolTableRecord
100
AcDbTextStyleTableRecord
  2
STANDARD
 70
     0
 40
0.0
 41
1.0
 50
0.0
 71
     0
 42
0.2
  3
txt
  4
bigfont.shx
  0
STYLE
  5
26
100
AcDbSymbolTableRecord
100
AcDbTextStyleTableRecord
  2
TATEGAKI
 70
    68
 40
0.0
 41
1.0
 50
0.0
 71
     0
 42
1.0
  3
txt
  4
bigfont.shx
  0
ENDTAB
  0
TABLE
  2
LAYER
 70
    6
  0
LAYER
  2
_0-1_一般図
 70
   64
 62
    7
  6
CONTINUOUS
  0
LAYER
  2
_0-9_
 70
   64
 62
    7
  6
CONTINUOUS
  0
LAYER
  2
_0-a_
 70
   64
 62
    7
  6
CONTINUOUS
  0
LAYER
  2
_f-1_一般図
 70
   64
 62
    7
  6
CONTINUOUS
  0
LAYER
  2
_f-a_
 70
   64
 62
    7
  6
CONTINUOUS
  0
LAYER
  2
ADD_LINE
 70
   64
 62
    7
  6
CONTINUOUS
  0
ENDTAB
  0
ENDSEC
  0
SECTION
  2
BLOCKS
  0
ENDSEC
  0
SECTION
  2
ENTITIES
  0
LINE
  8
ADD_LINE
  6
DOT
 62
    9
 10
538.67385039458418
 20
50
 11
538.67385039458418
 21
25
  0
LINE
  8
ADD_LINE
  6
DOT
 62
    9
 10
578.67385039458418
 20
50
 11
578.67385039458418
 21
25
  0
LINE
  8
ADD_LINE
  6
DOT
 62
    9
 10
820.51077559187615
 20
50
 11
820.51077559187615
 21
25
  0
LINE
  8
ADD_LINE
  6
DOT
 62
    9
 10
60.54106559187619
 20
50
 11
60.54106559187619
 21
25
  0
TEXT
  8
_f-a_
 62
    7
 10
289.60745799323013
 20
50
 40
6
 41
0.8333333333333333
 50
0
  1
名　　称
  0
TEXT
  8
_f-a_
 62
    7
 10
548.67385039458418
 20
50
 40
6
 41
0.8333333333333333
 50
0
  1
縮　　尺
  0
TEXT
  8
_f-a_
 62
    7
 10
689.59231299323017
 20
50
 40
6
 41
0.8333333333333333
 50
0
  1
品　　番
  0
LINE
  8
ADD_LINE
  6
DOT
 62
    9
 10
60.54106559187619
 20
50
 11
820.51077559187615
 21
50
  0
LINE
  8
ADD_LINE
  6
DOT
 62
    9
 10
60.54106559187619
 20
25
 11
820.51077559187615
 21
25
  0
TEXT
  8
_0-a_
 62
    3
 10
552.17385039458418
 20
32.5
 40
10
 41
0.8
 50
0
  1
1/2
  0
TEXT
  8
_0-a_
 62
    3
 10
681.84231299323017
 20
32.5
 40
10
 41
0.8
 50
0
  1
E114-105
  0
LINE
  8
_0-1_一般図
  6
CONTINUOUS
 62
    7
 10
293
 20
236.26236168519924
 11
407
 21
323.73763831480073
  0
LINE
  8
_0-1_一般図
  6
CONTINUOUS
 62
    7
 10
293
 20
398.26236168519927
 11
407
 21
398.26236168519927
  0
LINE
  8
_0-1_一般図
  6
CONTINUOUS
 62
    7
 10
293
 20
236.26236168519924
 11
293
 21
398.26236168519921
  0
LINE
  8
_0-1_一般図
  6
CONTINUOUS
 62
    7
 10
407
 20
323.73763831480073
 11
407
 21
398.26236168519927
  0
LINE
  8
_0-1_一般図
  6
CENTER1
 62
    4
 10
350
 20
404.4834906199182
 11
350
 21
280
  0
LINE
  8
_0-1_一般図
  6
CONTINUOUS
 62
    7
 10
407
 20
323.73763831480073
 11
473.5977743602042
 21
305.89281845727396
  0
ARC
  8
_0-1_一般図
  6
CONTINUOUS
 62
    7
 10
471.0095839091789
 20
296.2335601943833
 40
10
 50
41.098738003133313
 51
74.999999999999986
  0
LINE
  8
_0-1_一般図
  6
CONTINUOUS
 62
    7
 10
293
 20
236.26236168519924
 11
444.09240321851672
 21
195.77727426032004
  0
ARC
  8
_0-1_一般図
  6
CONTINUOUS
 62
    7
 10
446.68059366954202
 20
205.43653252321076
 40
10
 50
255
 51
288.90126199686671
  0
LINE
  8
_0-1_一般図
  6
CONTINUOUS
 62
    7
 10
522.25753605394914
 20
291.0945051008469
 11
478.54536262384204
 21
302.80714667085329
  0
ARC
  8
_0-1_一般図
  6
CONTINUOUS
 62
    7
 10
519.66934560292395
 20
281.43524683795624
 40
10
 50
66.469234390051881
 51
75
  0
LINE
  8
_0-1_一般図
  6
CONTINUOUS
 62
    7
 10
493.63214966561037
 20
184.26310871327598
 11
449.91997623550327
 21
195.97575028328231
  0
ARC
  8
_0-1_一般図
  6
CONTINUOUS
 62
    7
 10
496.22034011663561
 20
193.92236697616664
 40
10
 50
255
 51
263.53076560994816
  0
LINE
  8
_0-1_一般図
  6
CONTINUOUS
 62
    7
 10
523.66175997377684
 20
290.60370513209745
 11
527.61346548075767
 21
288.88293100090789
  0
LINE
  8
_0-1_一般図
  6
CONTINUOUS
 62
    7
 10
527.61346548075767
 20
288.88293100090789
 11
499.37630766007265
 21
183.50042335277055
  0
LINE
  8
_0-1_一般図
  6
CONTINUOUS
 62
    7
 10
495.09364323715766
 20
183.98604199447567
 11
499.37630766007265
 21
183.50042335277055
  0
LINE
  8
_0-1_一般図
  6
CENTER1
 62
    4
 10
350
 20
280
 11
521.51911162958936
 21
234.04159255234794
  0
LINE
  8
_0-1_一般図
  6
CONTINUOUS
 62
    5
 10
477.81824093337985
 20
300.09349157876312
 11
450.57121233945298
 21
198.4061965109459
  0
LINE
  8
_0-1_一般図
  6
CONTINUOUS
 62
    5
 10
522.25082894267712
 20
288.18781550404719
 11
495.00380034875025
 21
186.50052043622992
  0
LINE
  8
_0-9_
  6
CONTINUOUS
 62
    4
 10
294.5
 20
424.26236168519927
 11
294.5
 21
400.26236168519927
  0
LINE
  8
_0-9_
  6
CONTINUOUS
 62
    4
 10
405.49999999999994
 20
424.26236168519927
 11
405.49999999999994
 21
400.26236168519927
  0
LINE
  8
_0-9_
  6
CONTINUOUS
 62
    4
 10
293
 20
440.26236168519927
 11
293
 21
400.26236168519921
  0
LINE
  8
_0-9_
  6
CONTINUOUS
 62
    4
 10
407
 20
440.26236168519927
 11
407
 21
400.26236168519927
  0
POINT
  8
_0-9_
 62
    4
 10
269
 20
236.26236168519924
  0
POINT
  8
_0-9_
 62
    4
 10
269
 20
398.26236168519921
  0
LINE
  8
_0-9_
  6
CONTINUOUS
 62
    4
 10
267
 20
236.26236168519924
 11
291
 21
236.26236168519924
  0
LINE
  8
_0-9_
  6
CONTINUOUS
 62
    4
 10
267
 20
398.26236168519921
 11
291
 21
398.26236168519921
  0
LINE
  8
_0-9_
  6
CONTINUOUS
 62
    4
 10
269
 20
236.26236168519924
 11
269
 21
398.26236168519921
  0
TEXT
  8
_0-9_
 62
    3
 10
268
 20
310.76236168519921
 40
10
 41
0.8
 50
90
  1
162
  0
POINT
  8
_0-9_
 62
    4
 10
286.78834291753947
 20
213.0801418542616
  0
POINT
  8
_0-9_
 62
    4
 10
443.2683267763685
 20
171.15145654765317
  0
LINE
  8
_0-9_
  6
CONTINUOUS
 62
    4
 10
286.27070482733438
 20
211.14829020168347
 11
292.48236190979492
 21
234.33051003262111
  0
LINE
  8
_0-9_
  6
CONTINUOUS
 62
    4
 10
442.75068868616347
 20
169.21960489507504
 11
449.40233814529824
 21
194.04389863070418
  0
LINE
  8
_0-9_
  6
CONTINUOUS
 62
    4
 10
286.78834291753947
 20
213.0801418542616
 11
443.2683267763685
 21
171.15145654765317
  0
TEXT
  8
_0-9_
 62
    3
 10
359.00863602117761
 20
194.76404882041282
 40
10
 41
0.8
 50
-15.000000000000041
  1
162
  0
POINT
  8
_0-9_
 62
    4
 10
492.530543917111
 20
157.95168524742459
  0
LINE
  8
_0-9_
  6
CONTINUOUS
 62
    4
 10
492.01290582690592
 20
156.01983359484646
 11
498.85866956986763
 21
181.56857170019242
  0
LINE
  8
_0-9_
  6
CONTINUOUS
 62
    4
 10
443.2683267763685
 20
171.15145654765317
 11
492.530543917111
 21
157.95168524742459
  0
TEXT
  8
_0-9_
 62
    3
 10
464.05306963011373
 20
166.61747766551366
 40
10
 41
0.8
 50
-15.000000000000016
  1
51
  0
POINT
  8
_0-9_
 62
    4
 10
294.5
 20
422.26236168519927
  0
POINT
  8
_0-9_
 62
    4
 10
405.5
 20
422.26236168519927
  0
POINT
  8
_0-9_
 62
    4
 10
293
 20
438.26236168519927
  0
POINT
  8
_0-9_
 62
    4
 10
407
 20
438.26236168519927
  0
LINE
  8
_0-9_
  6
CONTINUOUS
 62
    4
 10
294.5
 20
422.26236168519927
 11
405.5
 21
422.26236168519927
  0
TEXT
  8
_0-9_
 62
    3
 10
339
 20
423.26236168519927
 40
10
 41
0.8
 50
0
  1
φ111
  0
LINE
  8
_0-9_
  6
CONTINUOUS
 62
    4
 10
293
 20
438.26236168519927
 11
407
 21
438.26236168519927
  0
TEXT
  8
_0-9_
 62
    3
 10
339
 20
439.26236168519927
 40
10
 41
0.8
 50
0
  1
φ114
  0
TEXT
  8
_0-a_
 62
    3
 10
268.60745799323013
 20
32.5
 40
10
 41
0.8
 50
0
  1
１０５°エルボ
  0
TEXT
  8
_0-9_
 62
    3
 10
431.78414319858337
 20
353.78431388759884
 40
10
 41
0.8
 50
-52.499999999999986
  1
105ﾟ
  0
ARC
  8
_0-9_
  6
CONTINUOUS
 62
    4
 10
407
 20
323.73763831480073
 40
36.953839951510389
 50
345
 51
90
  0
POINT
  8
_0-9_
 62
    4
 10
442.69466838971664
 20
314.17328074567951
  0
POINT
  8
_0-9_
 62
    4
 10
407
 20
360.69147826631115
  0
ENDSEC
  0
EOF
