  0
SECTION
  2
HEADER
  9
$ACADVER
  1
AC1009
  9
$INSBASE
 10
0
 20
0
 30
0
  9
$EXTMIN
 10
0
 20
0
  9
$EXTMAX
 10
840
 20
594
  9
$LIMMIN
 10
0
 20
0
  9
$LIMMAX
 10
840
 20
594
  9
$LTSCALE
 40
2
  0
ENDSEC
  0
SECTION
  2
TABLES
  0
TABLE
  2
LTYPE
 70
     9
  0
LTYPE
  2
CONTINUOUS
 70
    64
  3
実線
 72
    65
 73
     0
 40
0.0
  0
LTYPE
  2
DASHED1
 70
    64
  3
--  --  --  --  --  --  --  --  
 72
    65
 73
     2
 40
2.5
 49
1.25
 49
-1.25
  0
LTYPE
  2
DASHED2
 70
    64
  3
----    ----    ----    ----    
 72
    65
 73
     2
 40
5.0
 49
2.5
 49
-2.5
  0
LTYPE
  2
DASHED3
 70
    64
  3
------  ------  ------  ------  
 72
    65
 73
     2
 40
5.0
 49
3.75
 49
-1.25
  0
LTYPE
  2
CENTER1
 70
    64
  3
----- - ----- - ----- - ----- - 
 72
    65
 73
     4
 40
10.0
 49
6.25
 49
-1.25
 49
1.25
 49
-1.25
  0
LTYPE
  2
CENTER2
 70
    64
  3
----------  --  ----------  --  
 72
    65
 73
     4
 40
20.0
 49
12.5
 49
-2.5
 49
2.5
 49
-2.5
  0
LTYPE
  2
PHANTOM1
 70
    64
  3
--- - - --- - - --- - - --- - - 
 72
    65
 73
     6
 40
10.0
 49
3.25
 49
-1.25
 49
1.25
 49
-1.25
 49
1.25
 49
-1.25
  0
LTYPE
  2
PHANTOM2
 70
    64
  3
--------  -  -  --------  -  -  
 72
    65
 73
     6
 40
20.0
 49
10.0
 49
-2.5
 49
1.25
 49
-2.5
 49
1.25
 49
-2.5
  0
LTYPE
  2
DOT
 70
    64
  3
-   -   -   -   -   -   -   -   
 72
    65
 73
     2
 40
2.5
 49
0.625
 49
-1.875
  0
LTYPE
  2
DUMMY
 70
    64
  3
ダミー
 72
    65
 73
     0
 40
0.0
  0
LTYPE
  2
RAND1
 70
    64
  3
ランダム線1
 72
    65
 73
     4
 40
10.0
 49
1.0
 49
-2.0
 49
3.0
 49
-4.0
  0
LTYPE
  2
RAND2
 70
    64
  3
ランダム線2
 72
    65
 73
     4
 40
14.0
 49
2.0
 49
-3.0
 49
4.0
 49
-5.0
  0
LTYPE
  2
RAND3
 70
    64
  3
ランダム線3
 72
    65
 73
     4
 40
18.0
 49
3.0
 49
-4.0
 49
5.0
 49
-6.0
  0
LTYPE
  2
RAND4
 70
    64
  3
ランダム線4
 72
    65
 73
     4
 40
22.0
 49
4.0
 49
-5.0
 49
6.0
 49
-7.0
  0
LTYPE
  2
RAND5
 70
    64
  3
ランダム線5
 72
    65
 73
     4
 40
26.0
 49
5.0
 49
-6.0
 49
7.0
 49
-8.0
  0
LTYPE
  2
LONG1
 70
    64
  3
----------  --  ----------  --  
 72
    65
 73
     4
 40
40.0
 49
32.5
 49
-2.5
 49
2.5
 49
-2.5
  0
LTYPE
  2
LONG2
 70
    64
  3
--------  -  -  --------  -  -  
 72
    65
 73
     6
 40
40.0
 49
30.0
 49
-2.5
 49
1.25
 49
-2.5
 49
1.25
 49
-2.5
  0
LTYPE
  2
LONG3
 70
    64
  3
+++++++++++++++..+++++++++++++++
 72
    65
 73
     2
 40
40.0
 49
37.5
 49
-2.5
  0
LTYPE
  2
LONG4
 70
    64
  3
+++++++++++++++..+++++++++++++++
 72
    65
 73
     2
 40
80.0
 49
75.0
 49
-5.0
  0
LTYPE
  2
LONG5
 70
    64
  3
----------  --  ----------  --  
 72
    65
 73
     4
 40
60.0
 49
37.5
 49
-7.5
 49
7.5
 49
-7.5
  0
LTYPE
  2
dashed
 70
   64
  3
-------   -------------   ------
 72
   65
 73
    2
 40
7.5
 49
6
 49
-1.5
  0
LTYPE
  2
dashed_spaced
 70
   64
  3
----        --------        ----
 72
   65
 73
    2
 40
12
 49
6
 49
-6
  0
LTYPE
  2
long_dashed_dotted
 70
   64
  3
------------- --- --------------
 72
   65
 73
    4
 40
15.25
 49
12
 49
-1.5
 49
0.25
 49
-1.5
  0
LTYPE
  2
long_dashed_double-dotted
 70
   64
  3
----------- --- --- ------------
 72
   65
 73
    6
 40
17
 49
12
 49
-1.5
 49
0.25
 49
-1.5
 49
0.25
 49
-1.5
  0
LTYPE
  2
long_dashed_triplicate-dotted
 70
   64
  3
--------- --- --- --- ----------
 72
   65
 73
    8
 40
18.75
 49
12
 49
-1.5
 49
0.25
 49
-1.5
 49
0.25
 49
-1.5
 49
0.25
 49
-1.5
  0
LTYPE
  2
dotted
 70
   64
  3
   -       -       -       -    
 72
   65
 73
    2
 40
1.75
 49
0.25
 49
-1.5
  0
LTYPE
  2
chain
 70
   64
  3
-------------- -- --------------
 72
   65
 73
    4
 40
18.5
 49
12
 49
-1.5
 49
3.5
 49
-1.5
  0
LTYPE
  2
chain_double_dash
 70
   64
  3
------------ -- -- -------------
 72
   65
 73
    6
 40
23.5
 49
12
 49
-1.5
 49
3.5
 49
-1.5
 49
3.5
 49
-1.5
  0
LTYPE
  2
dashed_dotted
 70
   64
  3
-----------     -     ----------
 72
   65
 73
    4
 40
9.25
 49
6
 49
-1.5
 49
0.25
 49
-1.5
  0
LTYPE
  2
double-dashed_dotted
 70
   64
  3
------   -----------   -   -----
 72
   65
 73
    6
 40
16.75
 49
6
 49
-1.5
 49
6
 49
-1.5
 49
0.25
 49
-1.5
  0
LTYPE
  2
dashed_double-dotted
 70
   64
  3
---------    -    -    ---------
 72
   65
 73
    6
 40
11
 49
6
 49
-1.5
 49
0.25
 49
-1.5
 49
0.25
 49
-1.5
  0
LTYPE
  2
double-dashed_double-dotted
 70
   64
  3
-----   ---------   -   -   ----
 72
   65
 73
    8
 40
18.5
 49
6
 49
-1.5
 49
6
 49
-1.5
 49
0.25
 49
-1.5
 49
0.25
 49
-1.5
  0
LTYPE
  2
dashed_triplicate-dotted
 70
   64
  3
-------    -    -    -    ------
 72
   65
 73
    8
 40
12.75
 49
6
 49
-1.5
 49
0.25
 49
-1.5
 49
0.25
 49
-1.5
 49
0.25
 49
-1.5
  0
LTYPE
  2
double-dashed_triplicate-dotted
 70
   64
  3
-----  ---------  -  -  -  -----
 72
   65
 73
   10
 40
20.25
 49
6
 49
-1.5
 49
6
 49
-1.5
 49
0.25
 49
-1.5
 49
0.25
 49
-1.5
 49
0.25
 49
-1.5
  0
LTYPE
  2
undefined
 70
   64
  3
--------------------------------
 72
   65
 73
    0
 40
0
  0
ENDTAB
  0
TABLE
  2
STYLE
  5
3
100
AcDbSymbolTable
 70
     1
  0
STYLE
  5
10
100
AcDbSymbolTableRecord
100
AcDbTextStyleTableRecord
  2
STANDARD
 70
     0
 40
0.0
 41
1.0
 50
0.0
 71
     0
 42
0.2
  3
txt
  4
bigfont.shx
  0
STYLE
  5
26
100
AcDbSymbolTableRecord
100
AcDbTextStyleTableRecord
  2
TATEGAKI
 70
    68
 40
0.0
 41
1.0
 50
0.0
 71
     0
 42
1.0
  3
txt
  4
bigfont.shx
  0
ENDTAB
  0
TABLE
  2
LAYER
 70
    6
  0
LAYER
  2
_0-1_一般図
 70
   64
 62
    7
  6
CONTINUOUS
  0
LAYER
  2
_0-9_
 70
   64
 62
    7
  6
CONTINUOUS
  0
LAYER
  2
_0-a_
 70
   64
 62
    7
  6
CONTINUOUS
  0
LAYER
  2
_f-1_一般図
 70
   64
 62
    7
  6
CONTINUOUS
  0
LAYER
  2
_f-a_
 70
   64
 62
    7
  6
CONTINUOUS
  0
LAYER
  2
ADD_LINE
 70
   64
 62
    7
  6
CONTINUOUS
  0
ENDTAB
  0
ENDSEC
  0
SECTION
  2
BLOCKS
  0
ENDSEC
  0
SECTION
  2
ENTITIES
  0
LINE
  8
ADD_LINE
  6
DOT
 62
    9
 10
538.67385039458418
 20
50
 11
538.67385039458418
 21
25
  0
LINE
  8
ADD_LINE
  6
DOT
 62
    9
 10
578.67385039458418
 20
50
 11
578.67385039458418
 21
25
  0
LINE
  8
ADD_LINE
  6
DOT
 62
    9
 10
820.51077559187615
 20
50
 11
820.51077559187615
 21
25
  0
LINE
  8
ADD_LINE
  6
DOT
 62
    9
 10
60.54106559187619
 20
50
 11
60.54106559187619
 21
25
  0
TEXT
  8
_f-a_
 62
    7
 10
289.60745799323013
 20
50
 40
6
 41
0.8333333333333333
 50
0
  1
名　　称
  0
TEXT
  8
_f-a_
 62
    7
 10
548.67385039458418
 20
50
 40
6
 41
0.8333333333333333
 50
0
  1
縮　　尺
  0
TEXT
  8
_f-a_
 62
    7
 10
689.59231299323017
 20
50
 40
6
 41
0.8333333333333333
 50
0
  1
品　　番
  0
LINE
  8
ADD_LINE
  6
DOT
 62
    9
 10
60.54106559187619
 20
50
 11
820.51077559187615
 21
50
  0
LINE
  8
ADD_LINE
  6
DOT
 62
    9
 10
60.54106559187619
 20
25
 11
820.51077559187615
 21
25
  0
TEXT
  8
_0-a_
 62
    3
 10
552.17385039458418
 20
32.5
 40
10
 41
0.8
 50
0
  1
1/2
  0
TEXT
  8
_0-a_
 62
    3
 10
681.84231299323017
 20
32.5
 40
10
 41
0.8
 50
-0.0000000000000917
  1
E114-135
  0
LINE
  8
_0-1_一般図
  6
CONTINUOUS
 62
    7
 10
313
 20
464.38982694473356
 11
427
 21
464.38982694473356
  0
LINE
  8
_0-1_一般図
  6
CONTINUOUS
 62
    7
 10
313
 20
326.3898269447335
 11
313
 21
464.3898269447335
  0
ARC
  8
_0-1_一般図
  6
CONTINUOUS
 62
    7
 10
480.17585828856141
 20
306.29217914297408
 40
10
 50
11.098738003133317
 51
44.999999999999986
  0
LINE
  8
_0-1_一般図
  6
CONTINUOUS
 62
    7
 10
313
 20
326.3898269447335
 11
406.63675304516045
 21
232.75307389957294
  0
ARC
  8
_0-1_一般図
  6
CONTINUOUS
 62
    7
 10
413.70782085702598
 20
239.82414171143847
 40
10
 50
225
 51
258.90126199686665
  0
LINE
  8
_0-1_一般図
  6
CONTINUOUS
 62
    7
 10
521.98835919109342
 20
276.21765080813861
 11
489.98882733099276
 21
308.21718266823933
  0
ARC
  8
_0-1_一般図
  6
CONTINUOUS
 62
    7
 10
514.91729137922812
 20
269.14658299627308
 40
10
 50
36.469234390051874
 51
45
  0
LINE
  8
_0-1_一般図
  6
CONTINUOUS
 62
    7
 10
443.78234919186139
 20
198.01164080890646
 11
411.78281733176067
 21
230.01117266900712
  0
ARC
  8
_0-1_一般図
  6
CONTINUOUS
 62
    7
 10
450.85341700372686
 20
205.08270862077188
 40
10
 50
225
 51
233.53076560994813
  0
LINE
  8
_0-1_一般図
  6
CONTINUOUS
 62
    7
 10
427
 20
373.6101730552665
 11
427
 21
464.38982694473356
  0
LINE
  8
_0-1_一般図
  6
CONTINUOUS
 62
    7
 10
427
 20
373.6101730552665
 11
487.24692610042695
 21
313.3632469548395
  0
LINE
  8
_0-1_一般図
  6
CENTER1
 62
    4
 10
370
 20
470.61095587945249
 11
370
 21
349.99999999999994
  0
LINE
  8
_0-1_一般図
  6
CONTINUOUS
 62
    7
 10
313
 20
326.3898269447335
 11
427
 21
373.6101730552665
  0
LINE
  8
_0-1_一般図
  6
CONTINUOUS
 62
    7
 10
522.95905279389126
 20
275.09049360711111
 11
525.52094308561686
 21
271.6244067418354
  0
LINE
  8
_0-1_一般図
  6
CONTINUOUS
 62
    7
 10
444.90950639288883
 20
197.04094720610857
 11
448.37559325816449
 21
194.47905691438308
  0
LINE
  8
_0-1_一般図
  6
CONTINUOUS
 62
    7
 10
525.52094308561686
 20
271.6244067418354
 11
448.37559325816449
 21
194.47905691438308
  0
LINE
  8
_0-1_一般図
  6
CENTER1
 62
    4
 10
370
 20
349.99999999999994
 11
492.82240860657362
 21
227.17759139342638
  0
LINE
  8
_0-1_一般図
  6
CONTINUOUS
 62
    5
 10
488.00229392936473
 20
306.23064926661129
 11
413.56202745547449
 21
231.790382792721
  0
LINE
  8
_0-1_一般図
  6
CONTINUOUS
 62
    5
 10
520.529205863946
 20
273.70373733203013
 11
446.08893939005577
 21
199.26347085813973
  0
LINE
  8
_0-9_
  6
CONTINUOUS
 62
    4
 10
314.5
 20
490.38982694473356
 11
314.5
 21
466.38982694473356
  0
LINE
  8
_0-9_
  6
CONTINUOUS
 62
    4
 10
425.49999999999994
 20
490.38982694473356
 11
425.49999999999994
 21
466.3898269447335
  0
LINE
  8
_0-9_
  6
CONTINUOUS
 62
    4
 10
313
 20
506.38982694473356
 11
313
 21
466.38982694473356
  0
LINE
  8
_0-9_
  6
CONTINUOUS
 62
    4
 10
427
 20
506.38982694473356
 11
427
 21
466.38982694473356
  0
POINT
  8
_0-9_
 62
    4
 10
289
 20
326.3898269447335
  0
POINT
  8
_0-9_
 62
    4
 10
289
 20
464.3898269447335
  0
LINE
  8
_0-9_
  6
CONTINUOUS
 62
    4
 10
287
 20
326.3898269447335
 11
311
 21
326.3898269447335
  0
LINE
  8
_0-9_
  6
CONTINUOUS
 62
    4
 10
287
 20
464.3898269447335
 11
311
 21
464.3898269447335
  0
LINE
  8
_0-9_
  6
CONTINUOUS
 62
    4
 10
289
 20
326.3898269447335
 11
289
 21
464.3898269447335
  0
TEXT
  8
_0-9_
 62
    3
 10
288
 20
388.8898269447335
 40
10
 41
0.8
 50
90
  1
138
  0
POINT
  8
_0-9_
 62
    4
 10
296.02943725152284
 20
309.41926419625639
  0
POINT
  8
_0-9_
 62
    4
 10
393.61017305526627
 20
211.83852839251276
  0
LINE
  8
_0-9_
  6
CONTINUOUS
 62
    4
 10
294.61522368914973
 20
308.00505063388329
 11
311.58578643762689
 21
324.97561338236045
  0
LINE
  8
_0-9_
  6
CONTINUOUS
 62
    4
 10
392.19595949289322
 20
210.42431483013968
 11
410.36860376938756
 21
228.59695910663402
  0
LINE
  8
_0-9_
  6
CONTINUOUS
 62
    4
 10
296.02943725152284
 20
309.41926419625639
 11
393.61017305526627
 21
211.83852839251276
  0
TEXT
  8
_0-9_
 62
    3
 10
340.93071785686857
 20
265.93219715328371
 40
10
 41
0.8
 50
-45.00000000000005
  1
138
  0
POINT
  8
_0-9_
 62
    4
 10
429.67261889578026
 20
175.7760825519988
  0
LINE
  8
_0-9_
  6
CONTINUOUS
 62
    4
 10
428.25840533340715
 20
174.36186898962569
 11
446.96137969579144
 21
193.06484335200997
  0
LINE
  8
_0-9_
  6
CONTINUOUS
 62
    4
 10
393.61017305526627
 20
211.83852839251276
 11
429.67261889578026
 21
175.7760825519988
  0
TEXT
  8
_0-9_
 62
    3
 10
409.343298936667
 20
197.51961607348514
 40
10
 41
0.8
 50
-45.000000000000043
  1
51
  0
POINT
  8
_0-9_
 62
    4
 10
314.5
 20
488.38982694473356
  0
POINT
  8
_0-9_
 62
    4
 10
425.5
 20
488.38982694473356
  0
POINT
  8
_0-9_
 62
    4
 10
313
 20
504.38982694473356
  0
POINT
  8
_0-9_
 62
    4
 10
427
 20
504.38982694473356
  0
LINE
  8
_0-9_
  6
CONTINUOUS
 62
    4
 10
314.5
 20
488.38982694473356
 11
425.5
 21
488.38982694473356
  0
TEXT
  8
_0-9_
 62
    3
 10
359
 20
489.38982694473361
 40
10
 41
0.8
 50
0
  1
φ111
  0
LINE
  8
_0-9_
  6
CONTINUOUS
 62
    4
 10
313
 20
504.38982694473356
 11
427
 21
504.38982694473356
  0
TEXT
  8
_0-9_
 62
    3
 10
359
 20
505.38982694473361
 40
10
 41
0.8
 50
0
  1
φ114
  0
TEXT
  8
_0-a_
 62
    3
 10
268.60745799323013
 20
32.5
 40
10
 41
0.8
 50
0
  1
１３５°エルボ
  0
TEXT
  8
_0-9_
 62
    3
 10
462.56945466845104
 20
397.81445533771233
 40
10
 41
0.8
 50
-67.500000000000014
  1
135ﾟ
  0
ARC
  8
_0-9_
  6
CONTINUOUS
 62
    4
 10
427
 20
373.6101730552665
 40
41.124468972549877
 50
315
 51
90
  0
POINT
  8
_0-9_
 62
    4
 10
456.07939088318579
 20
344.53078217208065
  0
POINT
  8
_0-9_
 62
    4
 10
427
 20
414.73464202781634
  0
ENDSEC
  0
EOF
