  0
SECTION
  2
HEADER
  9
$ACADVER
  1
AC1009
  9
$INSBASE
 10
0
 20
0
 30
0
  9
$EXTMIN
 10
0
 20
0
  9
$EXTMAX
 10
420
 20
297
  9
$LIMMIN
 10
0
 20
0
  9
$LIMMAX
 10
420
 20
297
  9
$LTSCALE
 40
1
  0
ENDSEC
  0
SECTION
  2
TABLES
  0
TABLE
  2
LTYPE
 70
     9
  0
LTYPE
  2
CONTINUOUS
 70
    64
  3
実線
 72
    65
 73
     0
 40
0.0
  0
LTYPE
  2
DASHED1
 70
    64
  3
--  --  --  --  --  --  --  --  
 72
    65
 73
     2
 40
2.5
 49
1.25
 49
-1.25
  0
LTYPE
  2
DASHED2
 70
    64
  3
----    ----    ----    ----    
 72
    65
 73
     2
 40
5.0
 49
2.5
 49
-2.5
  0
LTYPE
  2
DASHED3
 70
    64
  3
------  ------  ------  ------  
 72
    65
 73
     2
 40
5.0
 49
3.75
 49
-1.25
  0
LTYPE
  2
CENTER1
 70
    64
  3
----- - ----- - ----- - ----- - 
 72
    65
 73
     4
 40
10.0
 49
6.25
 49
-1.25
 49
1.25
 49
-1.25
  0
LTYPE
  2
CENTER2
 70
    64
  3
----------  --  ----------  --  
 72
    65
 73
     4
 40
20.0
 49
12.5
 49
-2.5
 49
2.5
 49
-2.5
  0
LTYPE
  2
PHANTOM1
 70
    64
  3
--- - - --- - - --- - - --- - - 
 72
    65
 73
     6
 40
10.0
 49
3.25
 49
-1.25
 49
1.25
 49
-1.25
 49
1.25
 49
-1.25
  0
LTYPE
  2
PHANTOM2
 70
    64
  3
--------  -  -  --------  -  -  
 72
    65
 73
     6
 40
20.0
 49
10.0
 49
-2.5
 49
1.25
 49
-2.5
 49
1.25
 49
-2.5
  0
LTYPE
  2
DOT
 70
    64
  3
-   -   -   -   -   -   -   -   
 72
    65
 73
     2
 40
2.5
 49
0.625
 49
-1.875
  0
LTYPE
  2
DUMMY
 70
    64
  3
ダミー
 72
    65
 73
     0
 40
0.0
  0
LTYPE
  2
RAND1
 70
    64
  3
ランダム線1
 72
    65
 73
     4
 40
10.0
 49
1.0
 49
-2.0
 49
3.0
 49
-4.0
  0
LTYPE
  2
RAND2
 70
    64
  3
ランダム線2
 72
    65
 73
     4
 40
14.0
 49
2.0
 49
-3.0
 49
4.0
 49
-5.0
  0
LTYPE
  2
RAND3
 70
    64
  3
ランダム線3
 72
    65
 73
     4
 40
18.0
 49
3.0
 49
-4.0
 49
5.0
 49
-6.0
  0
LTYPE
  2
RAND4
 70
    64
  3
ランダム線4
 72
    65
 73
     4
 40
22.0
 49
4.0
 49
-5.0
 49
6.0
 49
-7.0
  0
LTYPE
  2
RAND5
 70
    64
  3
ランダム線5
 72
    65
 73
     4
 40
26.0
 49
5.0
 49
-6.0
 49
7.0
 49
-8.0
  0
LTYPE
  2
LONG1
 70
    64
  3
----------  --  ----------  --  
 72
    65
 73
     4
 40
40.0
 49
32.5
 49
-2.5
 49
2.5
 49
-2.5
  0
LTYPE
  2
LONG2
 70
    64
  3
--------  -  -  --------  -  -  
 72
    65
 73
     6
 40
40.0
 49
30.0
 49
-2.5
 49
1.25
 49
-2.5
 49
1.25
 49
-2.5
  0
LTYPE
  2
LONG3
 70
    64
  3
+++++++++++++++..+++++++++++++++
 72
    65
 73
     2
 40
40.0
 49
37.5
 49
-2.5
  0
LTYPE
  2
LONG4
 70
    64
  3
+++++++++++++++..+++++++++++++++
 72
    65
 73
     2
 40
80.0
 49
75.0
 49
-5.0
  0
LTYPE
  2
LONG5
 70
    64
  3
----------  --  ----------  --  
 72
    65
 73
     4
 40
60.0
 49
37.5
 49
-7.5
 49
7.5
 49
-7.5
  0
LTYPE
  2
dashed
 70
   64
  3
-------   -------------   ------
 72
   65
 73
    2
 40
7.5
 49
6
 49
-1.5
  0
LTYPE
  2
dashed_spaced
 70
   64
  3
----        --------        ----
 72
   65
 73
    2
 40
12
 49
6
 49
-6
  0
LTYPE
  2
long_dashed_dotted
 70
   64
  3
------------- --- --------------
 72
   65
 73
    4
 40
15.25
 49
12
 49
-1.5
 49
0.25
 49
-1.5
  0
LTYPE
  2
long_dashed_double-dotted
 70
   64
  3
----------- --- --- ------------
 72
   65
 73
    6
 40
17
 49
12
 49
-1.5
 49
0.25
 49
-1.5
 49
0.25
 49
-1.5
  0
LTYPE
  2
long_dashed_triplicate-dotted
 70
   64
  3
--------- --- --- --- ----------
 72
   65
 73
    8
 40
18.75
 49
12
 49
-1.5
 49
0.25
 49
-1.5
 49
0.25
 49
-1.5
 49
0.25
 49
-1.5
  0
LTYPE
  2
dotted
 70
   64
  3
   -       -       -       -    
 72
   65
 73
    2
 40
1.75
 49
0.25
 49
-1.5
  0
LTYPE
  2
chain
 70
   64
  3
-------------- -- --------------
 72
   65
 73
    4
 40
18.5
 49
12
 49
-1.5
 49
3.5
 49
-1.5
  0
LTYPE
  2
chain_double_dash
 70
   64
  3
------------ -- -- -------------
 72
   65
 73
    6
 40
23.5
 49
12
 49
-1.5
 49
3.5
 49
-1.5
 49
3.5
 49
-1.5
  0
LTYPE
  2
dashed_dotted
 70
   64
  3
-----------     -     ----------
 72
   65
 73
    4
 40
9.25
 49
6
 49
-1.5
 49
0.25
 49
-1.5
  0
LTYPE
  2
double-dashed_dotted
 70
   64
  3
------   -----------   -   -----
 72
   65
 73
    6
 40
16.75
 49
6
 49
-1.5
 49
6
 49
-1.5
 49
0.25
 49
-1.5
  0
LTYPE
  2
dashed_double-dotted
 70
   64
  3
---------    -    -    ---------
 72
   65
 73
    6
 40
11
 49
6
 49
-1.5
 49
0.25
 49
-1.5
 49
0.25
 49
-1.5
  0
LTYPE
  2
double-dashed_double-dotted
 70
   64
  3
-----   ---------   -   -   ----
 72
   65
 73
    8
 40
18.5
 49
6
 49
-1.5
 49
6
 49
-1.5
 49
0.25
 49
-1.5
 49
0.25
 49
-1.5
  0
LTYPE
  2
dashed_triplicate-dotted
 70
   64
  3
-------    -    -    -    ------
 72
   65
 73
    8
 40
12.75
 49
6
 49
-1.5
 49
0.25
 49
-1.5
 49
0.25
 49
-1.5
 49
0.25
 49
-1.5
  0
LTYPE
  2
double-dashed_triplicate-dotted
 70
   64
  3
-----  ---------  -  -  -  -----
 72
   65
 73
   10
 40
20.25
 49
6
 49
-1.5
 49
6
 49
-1.5
 49
0.25
 49
-1.5
 49
0.25
 49
-1.5
 49
0.25
 49
-1.5
  0
LTYPE
  2
undefined
 70
   64
  3
--------------------------------
 72
   65
 73
    0
 40
0
  0
ENDTAB
  0
TABLE
  2
STYLE
  5
3
100
AcDbSymbolTable
 70
     1
  0
STYLE
  5
10
100
AcDbSymbolTableRecord
100
AcDbTextStyleTableRecord
  2
STANDARD
 70
     0
 40
0.0
 41
1.0
 50
0.0
 71
     0
 42
0.2
  3
txt
  4
bigfont.shx
  0
STYLE
  5
26
100
AcDbSymbolTableRecord
100
AcDbTextStyleTableRecord
  2
TATEGAKI
 70
    68
 40
0.0
 41
1.0
 50
0.0
 71
     0
 42
1.0
  3
txt
  4
bigfont.shx
  0
ENDTAB
  0
TABLE
  2
LAYER
 70
    7
  0
LAYER
  2
_0-1_
 70
   64
 62
    7
  6
CONTINUOUS
  0
LAYER
  2
_0-9__
 70
   64
 62
    7
  6
CONTINUOUS
  0
LAYER
  2
_0-a__
 70
   64
 62
    7
  6
CONTINUOUS
  0
LAYER
  2
_0-b__
 70
   64
 62
    7
  6
CONTINUOUS
  0
LAYER
  2
_f-0_
 70
   64
 62
    7
  6
CONTINUOUS
  0
LAYER
  2
_f-a__
 70
   64
 62
    7
  6
CONTINUOUS
  0
LAYER
  2
ADD_LINE
 70
   64
 62
    7
  6
CONTINUOUS
  0
ENDTAB
  0
ENDSEC
  0
SECTION
  2
BLOCKS
  0
BLOCK
  2
-000-NT-12
 70
   64
 10
0
 20
0
 30
0
  0
ARC
  8
_0-1_
  6
CONTINUOUS
 62
    7
 10
-91.999999999999972
 20
7.756921938379989
 40
1
 50
180
 51
278.21321070036248
  0
LINE
  8
_0-1_
  6
CONTINUOUS
 62
    7
 10
84.999999999999972
 20
103.5
 11
84.999999999999972
 21
103.20000000000027
  0
LINE
  8
_0-1_
  6
CONTINUOUS
 62
    7
 10
84.999999999999972
 20
103.5
 11
86.499999999999972
 21
105
  0
ARC
  8
_0-1_
  6
CONTINUOUS
 62
    7
 10
88.900604685499871
 20
3.5450176300003591
 40
0.6999999999999999
 50
1.2602047085040915
 51
181.26020470819137
  0
ARC
  8
_0-1_
  6
CONTINUOUS
 62
    7
 10
91.454982370299746
 20
6.0993953148002333
 40
0.6999999999999999
 50
88.739795291600231
 51
268.73979529169793
  0
ARC
  8
_0-1_
  6
CONTINUOUS
 62
    7
 10
91.400000000099823
 20
3.6000000002002821
 40
1.8
 50
181.26020470829556
 51
88.739795291697874
  0
ARC
  8
_0-1_
  6
CONTINUOUS
 62
    7
 10
-88.900604685499815
 20
3.5450176300003591
 40
0.6999999999999999
 50
358.7397952918086
 51
178.73979529149591
  0
ARC
  8
_0-1_
  6
CONTINUOUS
 62
    7
 10
-91.454982370299689
 20
6.0993953148002333
 40
0.6999999999999999
 50
271.26020470830207
 51
91.260204708399769
  0
ARC
  8
_0-1_
  6
CONTINUOUS
 62
    7
 10
-91.400000000099766
 20
3.6000000002002821
 40
1.8
 50
91.260204708302112
 51
358.73979529170447
  0
LINE
  8
_0-1_
  6
CONTINUOUS
 62
    7
 10
-74.999999999999972
 20
119.00000000000483
 11
-74.999999999999972
 21
113
  0
ARC
  8
_0-1_
  6
CONTINUOUS
 62
    7
 10
-75.999999999999972
 20
119.00000000000483
 40
1
 50
0
 51
89.999999999722803
  0
ARC
  8
_0-1_
  6
CONTINUOUS
 62
    7
 10
91.999999999999972
 20
3
 40
3
 50
270
 51
0
  0
LINE
  8
_0-1_
  6
CONTINUOUS
 62
    7
 10
-94.699999999999974
 20
0
 11
91.999999999999972
 21
0
  0
ARC
  8
_0-1_
  6
CONTINUOUS
 62
    7
 10
-94.699999999999974
 20
0.2999999999999971
 40
0.3
 50
180
 51
270
  0
LINE
  8
_0-1_
  6
CONTINUOUS
 62
    7
 10
93.999999999999972
 20
105
 11
86.499999999999972
 21
105
  0
LINE
  8
_0-1_
  6
CONTINUOUS
 62
    7
 10
94.999999999999972
 20
104
 11
94.999999999999972
 21
3
  0
ARC
  8
_0-1_
  6
CONTINUOUS
 62
    7
 10
93.999999999999972
 20
104
 40
1
 50
0
 51
90.000000000000014
  0
LINE
  8
_0-1_
  6
CONTINUOUS
 62
    7
 10
-94.999999999999972
 20
123.50000000009352
 11
-94.999999999999972
 21
0.2999999999999971
  0
ARC
  8
_0-1_
  6
CONTINUOUS
 62
    7
 10
-93.999999999999972
 20
123.50000000009352
 40
1
 50
89.999999999617827
 51
179.99999999999994
  0
LINE
  8
_0-1_
  6
CONTINUOUS
 62
    7
 10
-75.99999999999514
 20
120.00000000000483
 11
-92.999999999999972
 21
120.00000000008805
  0
LINE
  8
_0-1_
  6
CONTINUOUS
 62
    7
 10
-92.999999999999972
 20
120.00000000008805
 11
-92.999999999999972
 21
122.50000000008819
  0
LINE
  8
_0-1_
  6
CONTINUOUS
 62
    7
 10
-74.999999999999972
 20
113
 11
-76.999999999999972
 21
113
  0
LINE
  8
_0-1_
  6
CONTINUOUS
 62
    7
 10
-76.999999999999972
 20
113
 11
-76.999999999399876
 21
118.00000000008714
  0
LINE
  8
_0-1_
  6
CONTINUOUS
 62
    7
 10
-76.999999999399876
 20
118.00000000008714
 11
-92.99999999989987
 21
118.00000000008714
  0
ARC
  8
_0-1_
  6
CONTINUOUS
 62
    7
 10
85.499999999999972
 20
103.20000000000027
 40
0.5
 50
180
 51
336.42182549298923
  0
LINE
  8
_0-1_
  6
CONTINUOUS
 62
    7
 10
92.999999999300172
 20
103.00000001040013
 11
85.958257583357621
 21
103.00000003176227
  0
ARC
  8
_0-1_
  6
CONTINUOUS
 62
    7
 10
91.400000000099823
 20
3.6000000002002821
 40
3.2000000000000002
 50
81.786789299637192
 51
88.739795291697462
  0
ARC
  8
_0-1_
  6
CONTINUOUS
 62
    7
 10
92.000000000000028
 20
7.756921938379989
 40
1
 50
261.78678929963712
 51
0
  0
ARC
  8
_0-1_
  6
CONTINUOUS
 62
    7
 10
91.400000000099823
 20
3.6000000002002821
 40
3.2000000000000002
 50
181.26020470829539
 51
188.21321070449952
  0
ARC
  8
_0-1_
  6
CONTINUOUS
 62
    7
 10
87.243078061963445
 20
2.9999999999999432
 40
1
 50
270.0000000000004
 51
8.2132107044996499
  0
LINE
  8
_0-1_
  6
CONTINUOUS
 62
    7
 10
-87.243078061963374
 20
1.9999999999999432
 11
87.243078061963445
 21
1.9999999999999432
  0
ARC
  8
_0-1_
  6
CONTINUOUS
 62
    7
 10
-91.400000000099766
 20
3.6000000002002821
 40
3.2000000000000002
 50
351.78678929550051
 51
358.73979529170458
  0
ARC
  8
_0-1_
  6
CONTINUOUS
 62
    7
 10
-87.243078061963374
 20
2.9999999999999432
 40
1
 50
171.78678929550037
 51
270
  0
ARC
  8
_0-1_
  6
CONTINUOUS
 62
    7
 10
-91.400000000099766
 20
3.6000000002002821
 40
3.2000000000000002
 50
91.260204708302552
 51
98.213210700362708
  0
LINE
  8
_0-1_
  6
CONTINUOUS
 62
    7
 10
-93.999999999993307
 20
124.50000000009351
 11
-86.999999999999972
 21
124.50000000003348
  0
LINE
  8
_0-1_
  6
CONTINUOUS
 62
    7
 10
-86.999999999999972
 20
124.50000000003348
 11
-86.999999999999972
 21
122.50000000003348
  0
LINE
  8
_0-1_
  6
CONTINUOUS
 62
    7
 10
-86.999999999999972
 20
122.50000000003348
 11
-92.999999999999972
 21
122.50000000008819
  0
ARC
  8
_0-1_
  6
CONTINUOUS
 62
    7
 10
-79.47153903082372
 20
88.606216535631546
 40
0.6999999999999999
 50
226.26020470839975
 51
46.260204708197875
  0
ARC
  8
_0-1_
  6
CONTINUOUS
 62
    7
 10
-79.471539030823791
 20
84.99378097036444
 40
0.6999999999999999
 50
313.7397952918086
 51
133.73979529149591
  0
ARC
  8
_0-1_
  6
CONTINUOUS
 62
    7
 10
-81.199999999899973
 20
86.799998753068778
 40
1.8
 50
46.260204708302162
 51
313.73979529170447
  0
LINE
  8
_0-1_
  6
CONTINUOUS
 62
    7
 10
-92.999999999999972
 20
85.799998753068763
 11
-92.999999999999972
 21
7.756921938379989
  0
LINE
  8
_0-1_
  6
CONTINUOUS
 62
    7
 10
-92.999999999999972
 20
118.00000000008714
 11
-92.999999999999972
 21
87.799998753068763
  0
LINE
  8
_0-1_
  6
CONTINUOUS
 62
    7
 10
-92.999999999999972
 20
87.799998753068763
 11
-84.239736830614106
 21
87.799998753068763
  0
ARC
  8
_0-1_
  6
CONTINUOUS
 62
    7
 10
-81.199999999899973
 20
86.799998753068778
 40
3.2000000000000002
 50
46.260204708302162
 51
161.79004313571724
  0
ARC
  8
_0-1_
  6
CONTINUOUS
 62
    7
 10
-81.199999999899973
 20
86.799998753068778
 40
3.2000000000000002
 50
198.20995686428327
 51
313.73979529170458
  0
LINE
  8
_0-1_
  6
CONTINUOUS
 62
    7
 10
-92.999999999999972
 20
85.799998753068763
 11
-84.239736830614106
 21
85.799998753068763
  0
ARC
  8
_0-1_
  6
CONTINUOUS
 62
    7
 10
81.200000000104666
 20
84.999998753073498
 40
1.8
 50
316.26020470829553
 51
223.73979529169787
  0
ARC
  8
_0-1_
  6
CONTINUOUS
 62
    7
 10
83.006217782738332
 20
83.271537784068244
 40
0.6999999999999999
 50
136.26020470850409
 51
316.2602047081914
  0
ARC
  8
_0-1_
  6
CONTINUOUS
 62
    7
 10
79.393782217470999
 20
83.271537784068244
 40
0.6999999999999999
 50
223.73979529160025
 51
43.739795291697938
  0
ARC
  8
_0-1_
  6
CONTINUOUS
 62
    7
 10
81.200000000104666
 20
84.999998753073498
 40
3.2000000000000002
 50
180
 51
223.73979529169787
  0
LINE
  8
_0-1_
  6
CONTINUOUS
 62
    7
 10
78.00000000010462
 20
84.999998753073498
 11
78.00000000010462
 21
86.799998753068678
  0
LINE
  8
_0-1_
  6
CONTINUOUS
 62
    7
 10
84.400000000104711
 20
85.799998753068678
 11
93.000000000000028
 21
85.799998753068678
  0
LINE
  8
_0-1_
  6
CONTINUOUS
 62
    7
 10
93.000000000000028
 20
7.756921938379989
 11
93.000000000000028
 21
85.799998753068678
  0
LINE
  8
_0-1_
  6
CONTINUOUS
 62
    7
 10
93.000000000000028
 20
87.799998753068678
 11
93.000000000000028
 21
103.00000000000006
  0
LINE
  8
_0-1_
  6
CONTINUOUS
 62
    7
 10
84.400000000104711
 20
84.999998753073498
 11
84.400000000104711
 21
85.799998753068678
  0
ARC
  8
_0-1_
  6
CONTINUOUS
 62
    7
 10
81.200000000104666
 20
84.999998753073498
 40
3.2000000000000002
 50
316.26020470829684
 51
0
  0
ARC
  8
_0-1_
  6
CONTINUOUS
 62
    7
 10
81.199999999900029
 20
86.799998753068678
 40
3.2000000000000002
 50
18.209956864283011
 51
180
  0
LINE
  8
_0-1_
  6
CONTINUOUS
 62
    7
 10
84.239736830614163
 20
87.799998753068678
 11
93.000000000000028
 21
87.799998753068678
  0
ENDBLK
  0
BLOCK
  2
-001-TK-A_1__1__1__1__1__1_
 70
   64
 10
0
 20
0
 30
0
  0
LINE
  8
_4-1_
  6
CONTINUOUS
 62
    7
 10
83.367872166978941
 20
0.4763404594256712
 11
79.067873747940894
 21
0.4763404594256712
  0
LINE
  8
_4-1_
  6
CONTINUOUS
 62
    7
 10
83.125231166982985
 20
4.4763404594256713
 11
77.411019166978804
 21
4.4763404594256713
  0
LINE
  8
_4-1_
  6
CONTINUOUS
 62
    7
 10
70.88919377300067
 20
-7.702338348375676
 11
79.067873747940894
 21
0.4763404594256712
  0
LINE
  8
_4-1_
  6
CONTINUOUS
 62
    7
 10
65.767873278079378
 20
-9.8236585405737458
 11
70.88919377300067
 21
-7.702338348375676
  0
LINE
  8
_4-1_
  6
CONTINUOUS
 62
    7
 10
-68.153447466711441
 20
-7.7023383426973169
 11
-76.332127392187999
 21
0.4763404594256712
  0
LINE
  8
_4-1_
  6
CONTINUOUS
 62
    7
 10
-68.153447466711441
 20
-7.7023383426973169
 11
-63.032126977468579
 21
-9.8236585405737458
  0
LINE
  8
_4-1_
  6
CONTINUOUS
 62
    7
 10
-77.632126950819838
 20
28.176341459552624
 11
-77.632126950819838
 21
26.819487089859678
  0
LINE
  8
_4-1_
  6
CONTINUOUS
 62
    7
 10
-89.132126833120083
 20
15.319487207559517
 11
-77.632126950819838
 21
26.819487089859678
  0
LINE
  8
_4-1_
  6
CONTINUOUS
 62
    7
 10
-79.861059018811531
 20
28.176341459494928
 11
-77.632126950819838
 21
28.176341459494928
  0
LINE
  8
_4-1_
  6
CONTINUOUS
 62
    7
 10
-83.396592924744269
 20
26.711875365427673
 11
-93.132126833120083
 21
16.976341457051888
  0
ARC
  8
_4-1_
  6
CONTINUOUS
 62
    7
 10
-79.861059018811531
 20
23.176341459494928
 40
5
 50
90
 51
134.99999999999991
  0
ARC
  8
_4-1_
  6
CONTINUOUS
 62
    7
 10
91.867873166879917
 20
12.176341459482956
 40
1
 50
0
 51
90
  0
LINE
  8
_4-1_
  6
CONTINUOUS
 62
    7
 10
91.867873166879917
 20
13.176341459482956
 11
89.867873166879917
 21
13.176341459482956
  0
LINE
  8
_4-1_
  6
CONTINUOUS
 62
    7
 10
89.867873166879917
 20
11.218982459327572
 11
89.867873166879917
 21
13.176341459482956
  0
LINE
  8
_4-1_
  6
CONTINUOUS
 62
    7
 10
83.125231166982985
 20
4.4763404594256713
 11
89.867873166879917
 21
11.218982459327572
  0
LINE
  8
_4-1_
  6
CONTINUOUS
 62
    7
 10
92.867873166879917
 20
12.176341459482956
 11
92.867873166879917
 21
9.9763414593271484
  0
LINE
  8
_4-1_
  6
CONTINUOUS
 62
    7
 10
92.867873166879917
 20
9.9763414593271484
 11
83.367872166978941
 21
0.4763404594256712
  0
LINE
  8
_4-1_
  6
CONTINUOUS
 62
    7
 10
-83.471465663513982
 20
0.9156802876458556
 11
-93.132126833120083
 21
10.576341457251893
  0
LINE
  8
_a-1_
  6
CONTINUOUS
 62
    7
 10
-93.132126833120083
 20
16.976341457051888
 11
-93.132126833120083
 21
10.576341457251893
  0
LINE
  8
_a-1_
  6
CONTINUOUS
 62
    7
 10
-89.132126833120083
 20
15.319487207559517
 11
-89.132126833120083
 21
12.233195706744274
  0
LINE
  8
_4-1_
  6
CONTINUOUS
 62
    7
 10
-89.132126833120083
 20
12.233195706744274
 11
-81.375271585801443
 21
4.4763404594256713
  0
LINE
  8
_4-1_
  6
CONTINUOUS
 62
    7
 10
-73.261059644117495
 20
4.4763404594256713
 11
-81.375271585801443
 21
4.4763404594256713
  0
ARC
  8
_4-1_
  6
CONTINUOUS
 62
    7
 10
-82.410805491734209
 20
1.9763404594256713
 40
1.5
 50
225
 51
270
  0
LINE
  8
_4-1_
  6
CONTINUOUS
 62
    7
 10
-82.410805491734209
 20
0.4763404594256712
 11
-76.332127392187999
 21
0.4763404594256712
  0
LINE
  8
_a-1_
  6
CONTINUOUS
 62
    7
 10
-39.632237833022145
 20
-4.8236585405742005
 11
-40.132237833022145
 21
-2.8236585405742005
  0
LINE
  8
_a-1_
  6
CONTINUOUS
 62
    7
 10
-39.632237833022145
 20
-4.8236585405742005
 11
-38.632237833022145
 21
-4.8236585405742005
  0
LINE
  8
_a-1_
  6
CONTINUOUS
 62
    7
 10
-42.632237833022145
 20
-4.8236585405742005
 11
-43.132237833022145
 21
-2.8236585405742005
  0
LINE
  8
_a-1_
  6
CONTINUOUS
 62
    7
 10
-42.632237833022145
 20
-4.8236585405742005
 11
-41.632237833022145
 21
-4.8236585405742005
  0
LINE
  8
_a-1_
  6
CONTINUOUS
 62
    7
 10
-41.632237833022145
 20
-4.8236585405742005
 11
-41.132237833022145
 21
-2.8236585405742005
  0
LINE
  8
_a-1_
  6
CONTINUOUS
 62
    7
 10
-45.632237833022145
 20
-4.8236585405742005
 11
-46.132237833022145
 21
-2.8236585405742005
  0
LINE
  8
_a-1_
  6
CONTINUOUS
 62
    7
 10
-45.632237833022145
 20
-4.8236585405742005
 11
-44.632237833022145
 21
-4.8236585405742005
  0
LINE
  8
_a-1_
  6
CONTINUOUS
 62
    7
 10
-44.632237833022145
 20
-4.8236585405742005
 11
-44.132237833022145
 21
-2.8236585405742005
  0
LINE
  8
_a-1_
  6
CONTINUOUS
 62
    7
 10
-48.632237833022145
 20
-4.8236585405742005
 11
-49.132237833022145
 21
-2.8236585405742005
  0
LINE
  8
_a-1_
  6
CONTINUOUS
 62
    7
 10
-48.632237833022145
 20
-4.8236585405742005
 11
-47.632237833022145
 21
-4.8236585405742005
  0
LINE
  8
_a-1_
  6
CONTINUOUS
 62
    7
 10
-47.632237833022145
 20
-4.8236585405742005
 11
-47.132237833022145
 21
-2.8236585405742005
  0
LINE
  8
_a-1_
  6
CONTINUOUS
 62
    7
 10
-51.632237833022145
 20
-4.8236585405742005
 11
-52.132237833022145
 21
-2.8236585405742005
  0
LINE
  8
_a-1_
  6
CONTINUOUS
 62
    7
 10
-51.632237833022145
 20
-4.8236585405742005
 11
-50.632237833022145
 21
-4.8236585405742005
  0
LINE
  8
_a-1_
  6
CONTINUOUS
 62
    7
 10
-50.632237833022145
 20
-4.8236585405742005
 11
-50.132237833022145
 21
-2.8236585405742005
  0
LINE
  8
_a-1_
  6
CONTINUOUS
 62
    7
 10
-54.632237833022145
 20
-4.8236585405742005
 11
-55.132237833022145
 21
-2.8236585405742005
  0
LINE
  8
_a-1_
  6
CONTINUOUS
 62
    7
 10
-54.632237833022145
 20
-4.8236585405742005
 11
-53.632237833022145
 21
-4.8236585405742005
  0
LINE
  8
_a-1_
  6
CONTINUOUS
 62
    7
 10
-53.632237833022145
 20
-4.8236585405742005
 11
-53.132237833022145
 21
-2.8236585405742005
  0
LINE
  8
_a-1_
  6
CONTINUOUS
 62
    7
 10
-57.632237833022145
 20
-4.8236585405742005
 11
-58.132237833022145
 21
-2.8236585405742005
  0
LINE
  8
_a-1_
  6
CONTINUOUS
 62
    7
 10
-57.632237833022145
 20
-4.8236585405742005
 11
-56.632237833022145
 21
-4.8236585405742005
  0
LINE
  8
_a-1_
  6
CONTINUOUS
 62
    7
 10
-56.632237833022145
 20
-4.8236585405742005
 11
-56.132237833022145
 21
-2.8236585405742005
  0
LINE
  8
_a-1_
  6
CONTINUOUS
 62
    7
 10
-60.632237833022145
 20
-4.8236585405742005
 11
-59.632237833022145
 21
-4.8236585405742005
  0
LINE
  8
_a-1_
  6
CONTINUOUS
 62
    7
 10
-59.632237833022145
 20
-4.8236585405742005
 11
-59.132237833022145
 21
-2.8236585405742005
  0
LINE
  8
_a-1_
  6
CONTINUOUS
 62
    7
 10
-63.632237833022145
 20
-4.8236585405742005
 11
-62.632237833022145
 21
-4.8236585405742005
  0
LINE
  8
_a-1_
  6
CONTINUOUS
 62
    7
 10
-63.632237833022145
 20
-4.8236585405742005
 11
-64.132237833022145
 21
-2.8236585405742005
  0
LINE
  8
_4-1_
  6
CONTINUOUS
 62
    7
 10
-65.961059641452252
 20
-2.8236585405742005
 11
-64.132237833022145
 21
-2.8236585405742005
  0
LINE
  8
_4-1_
  6
CONTINUOUS
 62
    7
 10
-65.961059641452252
 20
-2.8236585405742005
 11
-73.261059644117495
 21
4.4763404594256713
  0
LINE
  8
_a-1_
  6
CONTINUOUS
 62
    7
 10
-62.632237833022145
 20
-4.8236585405742005
 11
-62.132237833022145
 21
-2.8236585405742005
  0
LINE
  8
_a-1_
  6
CONTINUOUS
 62
    7
 10
-62.132237833022145
 20
-2.8236585405742005
 11
-61.132237833022145
 21
-2.8236585405742005
  0
LINE
  8
_a-1_
  6
CONTINUOUS
 62
    7
 10
-60.632237833022145
 20
-4.8236585405742005
 11
-61.132237833022145
 21
-2.8236585405742005
  0
LINE
  8
_a-1_
  6
CONTINUOUS
 62
    7
 10
-59.132237833022145
 20
-2.8236585405742005
 11
-58.132237833022145
 21
-2.8236585405742005
  0
LINE
  8
_a-1_
  6
CONTINUOUS
 62
    7
 10
-56.132237833022145
 20
-2.8236585405742005
 11
-55.132237833022145
 21
-2.8236585405742005
  0
LINE
  8
_a-1_
  6
CONTINUOUS
 62
    7
 10
-53.132237833022145
 20
-2.8236585405742005
 11
-52.132237833022145
 21
-2.8236585405742005
  0
LINE
  8
_a-1_
  6
CONTINUOUS
 62
    7
 10
-50.132237833022145
 20
-2.8236585405742005
 11
-49.132237833022145
 21
-2.8236585405742005
  0
LINE
  8
_a-1_
  6
CONTINUOUS
 62
    7
 10
-47.132237833022145
 20
-2.8236585405742005
 11
-46.132237833022145
 21
-2.8236585405742005
  0
LINE
  8
_a-1_
  6
CONTINUOUS
 62
    7
 10
-44.132237833022145
 20
-2.8236585405742005
 11
-43.132237833022145
 21
-2.8236585405742005
  0
LINE
  8
_a-1_
  6
CONTINUOUS
 62
    7
 10
-41.132237833022145
 20
-2.8236585405742005
 11
-40.132237833022145
 21
-2.8236585405742005
  0
LINE
  8
_a-1_
  6
CONTINUOUS
 62
    7
 10
60.367762166977855
 20
-4.8236585405742005
 11
60.867762166977855
 21
-2.8236585405742005
  0
LINE
  8
_a-1_
  6
CONTINUOUS
 62
    7
 10
62.367762166977855
 20
-4.8236585405742005
 11
61.867762166977855
 21
-2.8236585405742005
  0
LINE
  8
_a-1_
  6
CONTINUOUS
 62
    7
 10
62.367762166977855
 20
-4.8236585405742005
 11
63.367762166977855
 21
-4.8236585405742005
  0
LINE
  8
_a-1_
  6
CONTINUOUS
 62
    7
 10
63.367762166977855
 20
-4.8236585405742005
 11
63.867762166977855
 21
-2.8236585405742005
  0
LINE
  8
_a-1_
  6
CONTINUOUS
 62
    7
 10
60.867762166977855
 20
-2.8236585405742005
 11
61.867762166977855
 21
-2.8236585405742005
  0
LINE
  8
_a-1_
  6
CONTINUOUS
 62
    7
 10
65.367762166977855
 20
-4.8236585405742005
 11
64.867762166977855
 21
-2.8236585405742005
  0
LINE
  8
_a-1_
  6
CONTINUOUS
 62
    7
 10
65.367762166977855
 20
-4.8236585405742005
 11
66.367762166977855
 21
-4.8236585405742005
  0
LINE
  8
_a-1_
  6
CONTINUOUS
 62
    7
 10
66.367762166977855
 20
-4.8236585405742005
 11
66.867762166977855
 21
-2.8236585405742005
  0
LINE
  8
_a-1_
  6
CONTINUOUS
 62
    7
 10
63.867762166977855
 20
-2.8236585405742005
 11
64.867762166977855
 21
-2.8236585405742005
  0
LINE
  8
_a-1_
  6
CONTINUOUS
 62
    7
 10
66.867762166977855
 20
-2.8236585405742005
 11
70.111020166978491
 21
-2.8236585405742005
  0
LINE
  8
_4-1_
  6
CONTINUOUS
 62
    7
 10
77.411019166978804
 20
4.4763404594256713
 11
70.111020166978491
 21
-2.8236585405742005
  0
LINE
  8
_a-1_
  6
DASHED1
 62
    3
 10
-3.6322378330221454
 20
-4.8236585405742005
 11
-4.1322378330221454
 21
-2.8236585405742005
  0
LINE
  8
_a-1_
  6
DASHED1
 62
    3
 10
-3.6322378330221454
 20
-4.8236585405742005
 11
-2.6322378330221454
 21
-4.8236585405742005
  0
LINE
  8
_a-1_
  6
DASHED1
 62
    3
 10
-2.6322378330221454
 20
-4.8236585405742005
 11
-2.1322378330221454
 21
-2.8236585405742005
  0
LINE
  8
_a-1_
  6
DASHED1
 62
    3
 10
-5.1322378330221454
 20
-2.8236585405742005
 11
-4.1322378330221454
 21
-2.8236585405742005
  0
LINE
  8
_a-1_
  6
DASHED1
 62
    3
 10
-0.6322378330221454
 20
-4.8236585405742005
 11
-1.1322378330221454
 21
-2.8236585405742005
  0
LINE
  8
_a-1_
  6
DASHED1
 62
    3
 10
-0.6322378330221454
 20
-4.8236585405742005
 11
0.3677621669778545
 21
-4.8236585405742005
  0
LINE
  8
_a-1_
  6
DASHED1
 62
    3
 10
0.3677621669778545
 20
-4.8236585405742005
 11
0.8677621669778545
 21
-2.8236585405742005
  0
LINE
  8
_a-1_
  6
DASHED1
 62
    3
 10
-2.1322378330221454
 20
-2.8236585405742005
 11
-1.1322378330221454
 21
-2.8236585405742005
  0
LINE
  8
_a-1_
  6
DASHED1
 62
    3
 10
2.3677621669778546
 20
-4.8236585405742005
 11
1.8677621669778546
 21
-2.8236585405742005
  0
LINE
  8
_a-1_
  6
DASHED1
 62
    3
 10
2.3677621669778546
 20
-4.8236585405742005
 11
3.3677621669778546
 21
-4.8236585405742005
  0
LINE
  8
_a-1_
  6
DASHED1
 62
    3
 10
3.3677621669778546
 20
-4.8236585405742005
 11
3.8677621669778546
 21
-2.8236585405742005
  0
LINE
  8
_a-1_
  6
DASHED1
 62
    3
 10
0.8677621669778545
 20
-2.8236585405742005
 11
1.8677621669778546
 21
-2.8236585405742005
  0
LINE
  8
_a-1_
  6
DASHED1
 62
    3
 10
5.3677621669778546
 20
-4.8236585405742005
 11
4.8677621669778546
 21
-2.8236585405742005
  0
LINE
  8
_a-1_
  6
DASHED1
 62
    3
 10
5.3677621669778546
 20
-4.8236585405742005
 11
6.3677621669778546
 21
-4.8236585405742005
  0
LINE
  8
_a-1_
  6
DASHED1
 62
    3
 10
6.3677621669778546
 20
-4.8236585405742005
 11
6.8677621669778546
 21
-2.8236585405742005
  0
LINE
  8
_a-1_
  6
DASHED1
 62
    3
 10
3.8677621669778546
 20
-2.8236585405742005
 11
4.8677621669778546
 21
-2.8236585405742005
  0
LINE
  8
_a-1_
  6
DASHED1
 62
    3
 10
8.3677621669778546
 20
-4.8236585405742005
 11
7.8677621669778546
 21
-2.8236585405742005
  0
LINE
  8
_a-1_
  6
DASHED1
 62
    3
 10
8.3677621669778546
 20
-4.8236585405742005
 11
9.3677621669778546
 21
-4.8236585405742005
  0
LINE
  8
_a-1_
  6
DASHED1
 62
    3
 10
9.3677621669778546
 20
-4.8236585405742005
 11
9.8677621669778546
 21
-2.8236585405742005
  0
LINE
  8
_a-1_
  6
DASHED1
 62
    3
 10
6.8677621669778546
 20
-2.8236585405742005
 11
7.8677621669778546
 21
-2.8236585405742005
  0
LINE
  8
_a-1_
  6
DASHED1
 62
    3
 10
11.367762166977855
 20
-4.8236585405742005
 11
10.867762166977855
 21
-2.8236585405742005
  0
LINE
  8
_a-1_
  6
DASHED1
 62
    3
 10
11.367762166977855
 20
-4.8236585405742005
 11
12.367762166977855
 21
-4.8236585405742005
  0
LINE
  8
_a-1_
  6
DASHED1
 62
    3
 10
12.367762166977855
 20
-4.8236585405742005
 11
12.867762166977855
 21
-2.8236585405742005
  0
LINE
  8
_a-1_
  6
DASHED1
 62
    3
 10
9.8677621669778546
 20
-2.8236585405742005
 11
10.867762166977855
 21
-2.8236585405742005
  0
LINE
  8
_a-1_
  6
DASHED1
 62
    3
 10
14.367762166977855
 20
-4.8236585405742005
 11
13.867762166977855
 21
-2.8236585405742005
  0
LINE
  8
_a-1_
  6
DASHED1
 62
    3
 10
12.867762166977855
 20
-2.8236585405742005
 11
13.867762166977855
 21
-2.8236585405742005
  0
LINE
  8
_a-1_
  6
DASHED1
 62
    3
 10
30.367762166977855
 20
-4.8236585405742005
 11
30.867762166977855
 21
-2.8236585405742005
  0
LINE
  8
_a-1_
  6
DASHED1
 62
    3
 10
32.367762166977855
 20
-4.8236585405742005
 11
31.867762166977855
 21
-2.8236585405742005
  0
LINE
  8
_a-1_
  6
DASHED1
 62
    3
 10
32.367762166977855
 20
-4.8236585405742005
 11
33.367762166977855
 21
-4.8236585405742005
  0
LINE
  8
_a-1_
  6
DASHED1
 62
    3
 10
33.367762166977855
 20
-4.8236585405742005
 11
33.867762166977855
 21
-2.8236585405742005
  0
LINE
  8
_a-1_
  6
DASHED1
 62
    3
 10
30.867762166977855
 20
-2.8236585405742005
 11
31.867762166977855
 21
-2.8236585405742005
  0
LINE
  8
_a-1_
  6
DASHED1
 62
    3
 10
35.367762166977855
 20
-4.8236585405742005
 11
34.867762166977855
 21
-2.8236585405742005
  0
LINE
  8
_a-1_
  6
DASHED1
 62
    3
 10
35.367762166977855
 20
-4.8236585405742005
 11
36.367762166977855
 21
-4.8236585405742005
  0
LINE
  8
_a-1_
  6
DASHED1
 62
    3
 10
36.367762166977855
 20
-4.8236585405742005
 11
36.867762166977855
 21
-2.8236585405742005
  0
LINE
  8
_a-1_
  6
DASHED1
 62
    3
 10
33.867762166977855
 20
-2.8236585405742005
 11
34.867762166977855
 21
-2.8236585405742005
  0
LINE
  8
_a-1_
  6
DASHED1
 62
    3
 10
38.367762166977855
 20
-4.8236585405742005
 11
37.867762166977855
 21
-2.8236585405742005
  0
LINE
  8
_a-1_
  6
DASHED1
 62
    3
 10
38.367762166977855
 20
-4.8236585405742005
 11
39.367762166977855
 21
-4.8236585405742005
  0
LINE
  8
_a-1_
  6
DASHED1
 62
    3
 10
39.367762166977855
 20
-4.8236585405742005
 11
39.867762166977855
 21
-2.8236585405742005
  0
LINE
  8
_a-1_
  6
DASHED1
 62
    3
 10
36.867762166977855
 20
-2.8236585405742005
 11
37.867762166977855
 21
-2.8236585405742005
  0
LINE
  8
_a-1_
  6
DASHED1
 62
    3
 10
41.367762166977855
 20
-4.8236585405742005
 11
40.867762166977855
 21
-2.8236585405742005
  0
LINE
  8
_a-1_
  6
DASHED1
 62
    3
 10
39.867762166977855
 20
-2.8236585405742005
 11
40.867762166977855
 21
-2.8236585405742005
  0
LINE
  8
_a-1_
  6
CONTINUOUS
 62
    7
 10
59.367762166977855
 20
-4.8236585405742005
 11
60.367762166977855
 21
-4.8236585405742005
  0
LINE
  8
_a-1_
  6
CONTINUOUS
 62
    7
 10
57.367762166977855
 20
-4.8236585405742005
 11
57.867762166977855
 21
-2.8236585405742005
  0
LINE
  8
_a-1_
  6
CONTINUOUS
 62
    7
 10
59.367762166977855
 20
-4.8236585405742005
 11
58.867762166977855
 21
-2.8236585405742005
  0
LINE
  8
_a-1_
  6
CONTINUOUS
 62
    7
 10
57.867762166977855
 20
-2.8236585405742005
 11
58.867762166977855
 21
-2.8236585405742005
  0
LINE
  8
_a-1_
  6
CONTINUOUS
 62
    7
 10
56.367762166977855
 20
-4.8236585405742005
 11
57.367762166977855
 21
-4.8236585405742005
  0
LINE
  8
_a-1_
  6
CONTINUOUS
 62
    7
 10
54.367762166977855
 20
-4.8236585405742005
 11
54.867762166977855
 21
-2.8236585405742005
  0
LINE
  8
_a-1_
  6
CONTINUOUS
 62
    7
 10
56.367762166977855
 20
-4.8236585405742005
 11
55.867762166977855
 21
-2.8236585405742005
  0
LINE
  8
_a-1_
  6
CONTINUOUS
 62
    7
 10
54.867762166977855
 20
-2.8236585405742005
 11
55.867762166977855
 21
-2.8236585405742005
  0
LINE
  8
_a-1_
  6
CONTINUOUS
 62
    7
 10
53.367762166977855
 20
-4.8236585405742005
 11
54.367762166977855
 21
-4.8236585405742005
  0
LINE
  8
_a-1_
  6
CONTINUOUS
 62
    7
 10
51.367762166977855
 20
-4.8236585405742005
 11
51.867762166977855
 21
-2.8236585405742005
  0
LINE
  8
_a-1_
  6
CONTINUOUS
 62
    7
 10
53.367762166977855
 20
-4.8236585405742005
 11
52.867762166977855
 21
-2.8236585405742005
  0
LINE
  8
_a-1_
  6
CONTINUOUS
 62
    7
 10
51.867762166977855
 20
-2.8236585405742005
 11
52.867762166977855
 21
-2.8236585405742005
  0
LINE
  8
_a-1_
  6
CONTINUOUS
 62
    7
 10
50.367762166977855
 20
-4.8236585405742005
 11
51.367762166977855
 21
-4.8236585405742005
  0
LINE
  8
_a-1_
  6
CONTINUOUS
 62
    7
 10
50.367762166977855
 20
-4.8236585405742005
 11
49.867762166977855
 21
-2.8236585405742005
  0
LINE
  8
_4-1_
  6
CONTINUOUS
 62
    7
 10
49.867873166880656
 20
-9.8236585405737458
 11
65.767873278079378
 21
-9.8236585405737458
  0
LINE
  8
_4-1_
  6
CONTINUOUS
 62
    7
 10
-63.032126977468579
 20
-9.8236585405737458
 11
-5.1321268331191163
 21
-9.8236585405737458
  0
LINE
  8
_a-1_
  6
CONTINUOUS
 62
    7
 10
-20.632237833022145
 20
-4.8236585405742005
 11
-20.132237833022145
 21
-2.8236585405742005
  0
LINE
  8
_a-1_
  6
CONTINUOUS
 62
    7
 10
-18.632237833022145
 20
-4.8236585405742005
 11
-19.132237833022145
 21
-2.8236585405742005
  0
LINE
  8
_a-1_
  6
CONTINUOUS
 62
    7
 10
-18.632237833022145
 20
-4.8236585405742005
 11
-17.632237833022145
 21
-4.8236585405742005
  0
LINE
  8
_a-1_
  6
CONTINUOUS
 62
    7
 10
-17.632237833022145
 20
-4.8236585405742005
 11
-17.132237833022145
 21
-2.8236585405742005
  0
LINE
  8
_a-1_
  6
CONTINUOUS
 62
    7
 10
-20.132237833022145
 20
-2.8236585405742005
 11
-19.132237833022145
 21
-2.8236585405742005
  0
LINE
  8
_a-1_
  6
CONTINUOUS
 62
    7
 10
-15.632237833022145
 20
-4.8236585405742005
 11
-16.132237833022145
 21
-2.8236585405742005
  0
LINE
  8
_a-1_
  6
CONTINUOUS
 62
    7
 10
-15.632237833022145
 20
-4.8236585405742005
 11
-14.632237833022145
 21
-4.8236585405742005
  0
LINE
  8
_a-1_
  6
CONTINUOUS
 62
    7
 10
-14.632237833022145
 20
-4.8236585405742005
 11
-14.132237833022145
 21
-2.8236585405742005
  0
LINE
  8
_a-1_
  6
CONTINUOUS
 62
    7
 10
-17.132237833022145
 20
-2.8236585405742005
 11
-16.132237833022145
 21
-2.8236585405742005
  0
LINE
  8
_a-1_
  6
CONTINUOUS
 62
    7
 10
-12.632237833022145
 20
-4.8236585405742005
 11
-13.132237833022145
 21
-2.8236585405742005
  0
LINE
  8
_a-1_
  6
CONTINUOUS
 62
    7
 10
-12.632237833022145
 20
-4.8236585405742005
 11
-11.632237833022145
 21
-4.8236585405742005
  0
LINE
  8
_a-1_
  6
CONTINUOUS
 62
    7
 10
-11.632237833022145
 20
-4.8236585405742005
 11
-11.132237833022145
 21
-2.8236585405742005
  0
LINE
  8
_a-1_
  6
CONTINUOUS
 62
    7
 10
-14.132237833022145
 20
-2.8236585405742005
 11
-13.132237833022145
 21
-2.8236585405742005
  0
LINE
  8
_a-1_
  6
CONTINUOUS
 62
    7
 10
-9.6322378330221454
 20
-4.8236585405742005
 11
-10.132237833022145
 21
-2.8236585405742005
  0
LINE
  8
_a-1_
  6
CONTINUOUS
 62
    7
 10
-9.6322378330221454
 20
-4.8236585405742005
 11
-8.6322378330221454
 21
-4.8236585405742005
  0
LINE
  8
_a-1_
  6
CONTINUOUS
 62
    7
 10
-8.6322378330221454
 20
-4.8236585405742005
 11
-8.1322378330221454
 21
-2.8236585405742005
  0
LINE
  8
_a-1_
  6
CONTINUOUS
 62
    7
 10
-11.132237833022145
 20
-2.8236585405742005
 11
-10.132237833022145
 21
-2.8236585405742005
  0
LINE
  8
_a-1_
  6
CONTINUOUS
 62
    7
 10
-6.6322378330221454
 20
-4.8236585405742005
 11
-7.1322378330221454
 21
-2.8236585405742005
  0
LINE
  8
_a-1_
  6
CONTINUOUS
 62
    7
 10
-6.6322378330221454
 20
-4.8236585405742005
 11
-5.6322378330221454
 21
-4.8236585405742005
  0
LINE
  8
_a-1_
  6
CONTINUOUS
 62
    7
 10
-5.6322378330221454
 20
-4.8236585405742005
 11
-5.1322378330221454
 21
-2.8236585405742005
  0
LINE
  8
_a-1_
  6
CONTINUOUS
 62
    7
 10
-8.1322378330221454
 20
-2.8236585405742005
 11
-7.1322378330221454
 21
-2.8236585405742005
  0
LINE
  8
_a-1_
  6
CONTINUOUS
 62
    7
 10
-23.632237833022145
 20
-4.8236585405742005
 11
-23.132237833022145
 21
-2.8236585405742005
  0
LINE
  8
_a-1_
  6
CONTINUOUS
 62
    7
 10
-21.632237833022145
 20
-4.8236585405742005
 11
-22.132237833022145
 21
-2.8236585405742005
  0
LINE
  8
_a-1_
  6
CONTINUOUS
 62
    7
 10
-21.632237833022145
 20
-4.8236585405742005
 11
-20.632237833022145
 21
-4.8236585405742005
  0
LINE
  8
_a-1_
  6
CONTINUOUS
 62
    7
 10
-23.132237833022145
 20
-2.8236585405742005
 11
-22.132237833022145
 21
-2.8236585405742005
  0
LINE
  8
_a-1_
  6
CONTINUOUS
 62
    7
 10
-26.632237833022145
 20
-4.8236585405742005
 11
-26.132237833022145
 21
-2.8236585405742005
  0
LINE
  8
_a-1_
  6
CONTINUOUS
 62
    7
 10
-24.632237833022145
 20
-4.8236585405742005
 11
-25.132237833022145
 21
-2.8236585405742005
  0
LINE
  8
_a-1_
  6
CONTINUOUS
 62
    7
 10
-24.632237833022145
 20
-4.8236585405742005
 11
-23.632237833022145
 21
-4.8236585405742005
  0
LINE
  8
_a-1_
  6
CONTINUOUS
 62
    7
 10
-26.132237833022145
 20
-2.8236585405742005
 11
-25.132237833022145
 21
-2.8236585405742005
  0
LINE
  8
_a-1_
  6
CONTINUOUS
 62
    7
 10
-29.632237833022145
 20
-4.8236585405742005
 11
-29.132237833022145
 21
-2.8236585405742005
  0
LINE
  8
_a-1_
  6
CONTINUOUS
 62
    7
 10
-27.632237833022145
 20
-4.8236585405742005
 11
-28.132237833022145
 21
-2.8236585405742005
  0
LINE
  8
_a-1_
  6
CONTINUOUS
 62
    7
 10
-27.632237833022145
 20
-4.8236585405742005
 11
-26.632237833022145
 21
-4.8236585405742005
  0
LINE
  8
_a-1_
  6
CONTINUOUS
 62
    7
 10
-29.132237833022145
 20
-2.8236585405742005
 11
-28.132237833022145
 21
-2.8236585405742005
  0
LINE
  8
_a-1_
  6
CONTINUOUS
 62
    7
 10
-32.632237833022145
 20
-4.8236585405742005
 11
-32.132237833022145
 21
-2.8236585405742005
  0
LINE
  8
_a-1_
  6
CONTINUOUS
 62
    7
 10
-30.632237833022145
 20
-4.8236585405742005
 11
-31.132237833022145
 21
-2.8236585405742005
  0
LINE
  8
_a-1_
  6
CONTINUOUS
 62
    7
 10
-30.632237833022145
 20
-4.8236585405742005
 11
-29.632237833022145
 21
-4.8236585405742005
  0
LINE
  8
_a-1_
  6
CONTINUOUS
 62
    7
 10
-32.132237833022145
 20
-2.8236585405742005
 11
-31.132237833022145
 21
-2.8236585405742005
  0
LINE
  8
_a-1_
  6
CONTINUOUS
 62
    7
 10
-35.632237833022145
 20
-4.8236585405742005
 11
-35.132237833022145
 21
-2.8236585405742005
  0
LINE
  8
_a-1_
  6
CONTINUOUS
 62
    7
 10
-33.632237833022145
 20
-4.8236585405742005
 11
-34.132237833022145
 21
-2.8236585405742005
  0
LINE
  8
_a-1_
  6
CONTINUOUS
 62
    7
 10
-33.632237833022145
 20
-4.8236585405742005
 11
-32.632237833022145
 21
-4.8236585405742005
  0
LINE
  8
_a-1_
  6
CONTINUOUS
 62
    7
 10
-35.132237833022145
 20
-2.8236585405742005
 11
-34.132237833022145
 21
-2.8236585405742005
  0
LINE
  8
_a-1_
  6
CONTINUOUS
 62
    7
 10
-38.632237833022145
 20
-4.8236585405742005
 11
-38.132237833022145
 21
-2.8236585405742005
  0
LINE
  8
_a-1_
  6
CONTINUOUS
 62
    7
 10
-36.632237833022145
 20
-4.8236585405742005
 11
-37.132237833022145
 21
-2.8236585405742005
  0
LINE
  8
_a-1_
  6
CONTINUOUS
 62
    7
 10
-36.632237833022145
 20
-4.8236585405742005
 11
-35.632237833022145
 21
-4.8236585405742005
  0
LINE
  8
_a-1_
  6
CONTINUOUS
 62
    7
 10
-38.132237833022145
 20
-2.8236585405742005
 11
-37.132237833022145
 21
-2.8236585405742005
  0
LINE
  8
_4-1_
  6
DASHED1
 62
    3
 10
-5.1321268331191163
 20
-9.8236585405737458
 11
14.867873166880884
 21
-9.8236585405737458
  0
LINE
  8
_4-1_
  6
DASHED1
 62
    3
 10
29.867873166880656
 20
-9.8236585405737458
 11
49.867873166880656
 21
-9.8236585405737458
  0
LINE
  8
_0-1_
  6
CONTINUOUS
 62
    7
 10
14.867873166880884
 20
-9.8236585405737458
 11
29.867873166880656
 21
-9.8236585405737458
  0
LINE
  8
_a-1_
  6
DASHED1
 62
    3
 10
14.367762166977855
 20
-4.8236585405742005
 11
14.867873166880884
 21
-4.8236585405742005
  0
LINE
  8
_a-1_
  6
DASHED1
 62
    3
 10
29.867873166880656
 20
-4.8236585405742005
 11
30.367762166977855
 21
-4.8236585405742005
  0
LINE
  8
_a-1_
  6
CONTINUOUS
 62
    7
 10
15.367762166977855
 20
-4.8236585405742005
 11
15.867762166977855
 21
-2.8236585405742005
  0
LINE
  8
_a-1_
  6
CONTINUOUS
 62
    7
 10
17.367762166977855
 20
-4.8236585405742005
 11
16.867762166977855
 21
-2.8236585405742005
  0
LINE
  8
_a-1_
  6
CONTINUOUS
 62
    7
 10
17.367762166977855
 20
-4.8236585405742005
 11
18.367762166977855
 21
-4.8236585405742005
  0
LINE
  8
_a-1_
  6
CONTINUOUS
 62
    7
 10
18.367762166977855
 20
-4.8236585405742005
 11
18.867762166977855
 21
-2.8236585405742005
  0
LINE
  8
_a-1_
  6
CONTINUOUS
 62
    7
 10
15.867762166977855
 20
-2.8236585405742005
 11
16.867762166977855
 21
-2.8236585405742005
  0
LINE
  8
_a-1_
  6
CONTINUOUS
 62
    7
 10
20.367762166977855
 20
-4.8236585405742005
 11
19.867762166977855
 21
-2.8236585405742005
  0
LINE
  8
_a-1_
  6
CONTINUOUS
 62
    7
 10
20.367762166977855
 20
-4.8236585405742005
 11
21.367762166977855
 21
-4.8236585405742005
  0
LINE
  8
_a-1_
  6
CONTINUOUS
 62
    7
 10
21.367762166977855
 20
-4.8236585405742005
 11
21.867762166977855
 21
-2.8236585405742005
  0
LINE
  8
_a-1_
  6
CONTINUOUS
 62
    7
 10
18.867762166977855
 20
-2.8236585405742005
 11
19.867762166977855
 21
-2.8236585405742005
  0
LINE
  8
_a-1_
  6
CONTINUOUS
 62
    7
 10
23.367762166977855
 20
-4.8236585405742005
 11
22.867762166977855
 21
-2.8236585405742005
  0
LINE
  8
_a-1_
  6
CONTINUOUS
 62
    7
 10
23.367762166977855
 20
-4.8236585405742005
 11
24.367762166977855
 21
-4.8236585405742005
  0
LINE
  8
_a-1_
  6
CONTINUOUS
 62
    7
 10
24.367762166977855
 20
-4.8236585405742005
 11
24.867762166977855
 21
-2.8236585405742005
  0
LINE
  8
_a-1_
  6
CONTINUOUS
 62
    7
 10
21.867762166977855
 20
-2.8236585405742005
 11
22.867762166977855
 21
-2.8236585405742005
  0
LINE
  8
_a-1_
  6
CONTINUOUS
 62
    7
 10
26.367762166977855
 20
-4.8236585405742005
 11
25.867762166977855
 21
-2.8236585405742005
  0
LINE
  8
_a-1_
  6
CONTINUOUS
 62
    7
 10
26.367762166977855
 20
-4.8236585405742005
 11
27.367762166977855
 21
-4.8236585405742005
  0
LINE
  8
_a-1_
  6
CONTINUOUS
 62
    7
 10
27.367762166977855
 20
-4.8236585405742005
 11
27.867762166977855
 21
-2.8236585405742005
  0
LINE
  8
_a-1_
  6
CONTINUOUS
 62
    7
 10
24.867762166977855
 20
-2.8236585405742005
 11
25.867762166977855
 21
-2.8236585405742005
  0
LINE
  8
_a-1_
  6
CONTINUOUS
 62
    7
 10
29.367762166977855
 20
-4.8236585405742005
 11
28.867762166977855
 21
-2.8236585405742005
  0
LINE
  8
_a-1_
  6
CONTINUOUS
 62
    7
 10
27.867762166977855
 20
-2.8236585405742005
 11
28.867762166977855
 21
-2.8236585405742005
  0
LINE
  8
_a-1_
  6
CONTINUOUS
 62
    7
 10
14.867873166880884
 20
-4.8236585405742005
 11
15.367762166977855
 21
-4.8236585405742005
  0
LINE
  8
_a-1_
  6
CONTINUOUS
 62
    7
 10
29.367762166977855
 20
-4.8236585405742005
 11
29.867873166880656
 21
-4.8236585405742005
  0
LINE
  8
_a-1_
  6
DASHED1
 62
    3
 10
41.367762166977855
 20
-4.8236585405742005
 11
42.367762166977855
 21
-4.8236585405742005
  0
LINE
  8
_a-1_
  6
DASHED1
 62
    3
 10
42.367762166977855
 20
-4.8236585405742005
 11
42.867762166977855
 21
-2.8236585405742005
  0
LINE
  8
_a-1_
  6
DASHED1
 62
    3
 10
44.367762166977855
 20
-4.8236585405742005
 11
43.867762166977855
 21
-2.8236585405742005
  0
LINE
  8
_a-1_
  6
DASHED1
 62
    3
 10
42.867762166977855
 20
-2.8236585405742005
 11
43.867762166977855
 21
-2.8236585405742005
  0
LINE
  8
_a-1_
  6
DASHED1
 62
    3
 10
44.367762166977855
 20
-4.8236585405742005
 11
45.367762166977855
 21
-4.8236585405742005
  0
LINE
  8
_a-1_
  6
DASHED1
 62
    3
 10
45.367762166977855
 20
-4.8236585405742005
 11
45.867762166977855
 21
-2.8236585405742005
  0
LINE
  8
_a-1_
  6
DASHED1
 62
    3
 10
47.367762166977855
 20
-4.8236585405742005
 11
46.867762166977855
 21
-2.8236585405742005
  0
LINE
  8
_a-1_
  6
DASHED1
 62
    3
 10
45.867762166977855
 20
-2.8236585405742005
 11
46.867762166977855
 21
-2.8236585405742005
  0
LINE
  8
_a-1_
  6
DASHED1
 62
    3
 10
47.367762166977855
 20
-4.8236585405742005
 11
48.367762166977855
 21
-4.8236585405742005
  0
LINE
  8
_a-1_
  6
DASHED1
 62
    3
 10
48.367762166977855
 20
-4.8236585405742005
 11
48.867762166977855
 21
-2.8236585405742005
  0
LINE
  8
_a-1_
  6
DASHED1
 62
    3
 10
48.867762166977855
 20
-2.8236585405742005
 11
49.867762166977855
 21
-2.8236585405742005
  0
ENDBLK
  0
BLOCK
  2
-002-OTK-NT12_1_
 70
   64
 10
0
 20
0
 30
0
  0
LINE
  8
_0-1_
  6
CONTINUOUS
 62
    7
 10
-64.85786287975705
 20
0.8577591606548438
 11
-64.85786287975705
 21
-27.592261680082839
  0
LINE
  8
_0-1_
  6
CENTER1
 62
    4
 10
71.14213712024295
 20
4.2780601391133146
 11
71.14213712024295
 21
28.013534183467051
  0
LINE
  8
_0-1_
  6
DASHED1
 62
    3
 10
68.342137120242768
 20
12.307738016460327
 11
68.342137120242768
 21
6.3077380164603269
  0
LINE
  8
_0-1_
  6
DASHED1
 62
    3
 10
68.342137120242768
 20
6.3077380164603269
 11
69.14213712024295
 21
7.1077380164536876
  0
LINE
  8
_0-1_
  6
DASHED1
 62
    3
 10
69.14213712024295
 20
11.507738016453779
 11
68.342137120242768
 21
12.307738016460327
  0
LINE
  8
_0-1_
  6
DASHED1
 62
    3
 10
68.342137120242768
 20
6.3077380164603269
 11
65.14213712024295
 21
6.3077380164878392
  0
LINE
  8
_0-1_
  6
CENTER1
 62
    4
 10
-26.855571278768622
 20
-6.6922619940363788
 11
-12.857571278769029
 21
-6.6922619940363788
  0
LINE
  8
_0-1_
  6
CENTER1
 62
    4
 10
-19.857862879758869
 20
-13.691878555170341
 11
-19.857862879758869
 21
0.3081214448296592
  0
LINE
  8
_0-1_
  6
CENTER1
 62
    4
 10
-54.85786287975705
 20
11.980181092911245
 11
-54.85786287975705
 21
-11.723317016051077
  0
LINE
  8
_0-1_
  6
DASHED1
 62
    5
 10
65.14213712024295
 20
6.8077380164880665
 11
68.842137120242768
 21
6.8077380164562342
  0
LINE
  8
_0-1_
  6
DASHED1
 62
    3
 10
68.342137120242768
 20
12.307738016460327
 11
64.156258506932971
 21
12.307738016496252
  0
LINE
  8
_0-1_
  6
DASHED1
 62
    5
 10
64.467371206754905
 20
11.807738016493524
 11
68.842137120242768
 21
11.807738016456234
  0
LINE
  8
_0-1_
  6
CENTER1
 62
    4
 10
60.862056358817171
 20
16.307738016508758
 11
81.071576373591796
 21
16.307738016508758
  0
LINE
  8
_0-1_
  6
CONTINUOUS
 62
    7
 10
49.14213712024295
 20
11.807738016420764
 11
49.14213712024295
 21
6.8077380164207639
  0
LINE
  8
_0-1_
  6
CONTINUOUS
 62
    7
 10
49.642137120451224
 20
12.307738016628925
 11
49.64213712025159
 21
6.3077380166289245
  0
LINE
  8
_0-1_
  6
CONTINUOUS
 62
    7
 10
49.14213712024295
 20
11.807738016420764
 11
49.642137120451224
 21
12.307738016628925
  0
LINE
  8
_0-1_
  6
CONTINUOUS
 62
    7
 10
49.142137120247043
 20
6.8077380166335857
 11
49.64213712025159
 21
6.3077380166289245
  0
LINE
  8
_0-1_
  6
CENTER1
 62
    4
 10
69.991055951231118
 20
-21.192261983491242
 11
82.911540647647342
 21
-21.192261983491242
  0
LINE
  8
_0-1_
  6
CENTER1
 62
    4
 10
69.991055951231118
 20
-5.1922619834912425
 11
82.911540647647342
 21
-5.1922619834912425
  0
LINE
  8
_0-1_
  6
DASHED1
 62
    3
 10
74.14213712024295
 20
-24.692261983491242
 11
79.14213712024295
 21
-24.692261983491242
  0
LINE
  8
_0-1_
  6
DASHED1
 62
    3
 10
74.14213712024295
 20
-17.692261983491242
 11
79.14213712024295
 21
-17.692261983491242
  0
LINE
  8
_0-1_
  6
DASHED1
 62
    3
 10
74.14213712024295
 20
-9.6922619834912425
 11
79.14213712024295
 21
-9.6922619834912425
  0
LINE
  8
_0-1_
  6
DASHED1
 62
    3
 10
74.14213712024295
 20
-0.6922619834912424
 11
79.14213712024295
 21
-0.6922619834912424
  0
LINE
  8
_0-1_
  6
CONTINUOUS
 62
    7
 10
-64.85786287975705
 20
-27.592261680082839
 11
-44.85786287975705
 21
-27.592261680082839
  0
ARC
  8
_0-1_
  6
CONTINUOUS
 62
    7
 10
69.442137120242791
 20
5.1077380165088258
 40
0.3
 50
180
 51
270
  0
ARC
  8
_0-1_
  6
CONTINUOUS
 62
    7
 10
75.14213712024295
 20
16.307738016508758
 40
0.3
 50
134.99999999999977
 51
224.99999999999952
  0
LINE
  8
_0-1_
  6
CONTINUOUS
 62
    7
 10
74.930005085886989
 20
16.519870050864718
 11
75.018558718152093
 21
16.608423683129821
  0
ARC
  8
_0-1_
  6
CONTINUOUS
 62
    7
 10
74.806426683796118
 20
16.820555717485782
 40
0.3
 50
315.00000000000193
 51
7.9668064313888642
  0
LINE
  8
_0-1_
  6
CONTINUOUS
 62
    7
 10
74.930005085886989
 20
16.095605982152797
 11
75.018558718152093
 21
16.007052349887694
  0
ARC
  8
_0-1_
  6
CONTINUOUS
 62
    7
 10
74.806426683796118
 20
15.794920315531741
 40
0.3
 50
352.03319356861152
 51
44.999999999997357
  0
LINE
  8
_0-1_
  6
CONTINUOUS
 62
    7
 10
69.142137120242836
 20
5.1077380165088258
 11
69.142137120242836
 21
12.674557591591842
  0
ARC
  8
_0-1_
  6
CONTINUOUS
 62
    7
 10
71.14213712024295
 20
16.307738016508758
 40
4
 50
7.9668064313885338
 51
237.66397400244051
  0
ARC
  8
_0-1_
  6
CONTINUOUS
 62
    7
 10
68.842137120242839
 20
12.674557591591842
 40
0.3
 50
0
 51
57.663974002440582
  0
LINE
  8
_0-1_
  6
CONTINUOUS
 62
    7
 10
73.142137120242836
 20
9.1077380165088258
 11
73.142137120242836
 21
12.674557591591693
  0
ARC
  8
_0-1_
  6
CONTINUOUS
 62
    7
 10
71.14213712024295
 20
16.307738016508758
 40
4
 50
302.33602599755591
 51
352.03319356861147
  0
ARC
  8
_0-1_
  6
CONTINUOUS
 62
    7
 10
73.442137120242833
 20
12.674557591591693
 40
0.3
 50
122.33602599755508
 51
180
  0
ARC
  8
_0-1_
  6
CONTINUOUS
 62
    7
 10
73.442137120242833
 20
9.1077380165088258
 40
0.3
 50
180
 51
270
  0
LINE
  8
_0-1_
  6
CONTINUOUS
 62
    7
 10
79.14213712024295
 20
-28.892261983491174
 11
79.14213712024295
 21
7.8077380165088144
  0
ARC
  8
_0-1_
  6
CONTINUOUS
 62
    7
 10
78.14213712024295
 20
7.8077380165088144
 40
1
 50
0
 51
90
  0
LINE
  8
_0-1_
  6
CONTINUOUS
 62
    7
 10
74.14213712024295
 20
4.507738016508803
 11
74.14213712024295
 21
-4.4437338460673672
  0
ARC
  8
_0-1_
  6
CONTINUOUS
 62
    7
 10
74.442137120242904
 20
-4.4437338460673672
 40
0.3
 50
180
 51
224.99999999999801
  0
LINE
  8
_0-1_
  6
CONTINUOUS
 62
    7
 10
74.230005085886972
 20
-4.6558658804232991
 11
74.554269154598927
 21
-4.9801299491352538
  0
ARC
  8
_0-1_
  6
CONTINUOUS
 62
    7
 10
74.342137120242995
 20
-5.1922619834911856
 40
0.3
 50
315.00000000000387
 51
44.99999999999617
  0
LINE
  8
_0-1_
  6
CONTINUOUS
 62
    7
 10
74.230005085886972
 20
-5.7286580865590722
 11
74.554269154598927
 21
-5.4043940178471175
  0
ARC
  8
_0-1_
  6
CONTINUOUS
 62
    7
 10
74.442137120243018
 20
-5.940790120915004
 40
0.3
 50
135.00000000000179
 51
180.00000000000003
  0
LINE
  8
_0-1_
  6
CONTINUOUS
 62
    7
 10
74.14213712024295
 20
-5.940790120915004
 11
74.14213712024295
 21
-20.443733846067367
  0
ARC
  8
_0-1_
  6
CONTINUOUS
 62
    7
 10
74.442137120242904
 20
-20.443733846067367
 40
0.3
 50
180
 51
224.99999999999801
  0
LINE
  8
_0-1_
  6
CONTINUOUS
 62
    7
 10
74.230005085886972
 20
-20.655865880423299
 11
74.554269154598927
 21
-20.980129949135254
  0
ARC
  8
_0-1_
  6
CONTINUOUS
 62
    7
 10
74.342137120242995
 20
-21.192261983491186
 40
0.3
 50
315.00000000000387
 51
44.99999999999617
  0
LINE
  8
_0-1_
  6
CONTINUOUS
 62
    7
 10
74.230005085886972
 20
-21.728658086559072
 11
74.554269154598927
 21
-21.404394017847117
  0
ARC
  8
_0-1_
  6
CONTINUOUS
 62
    7
 10
74.442137120243018
 20
-21.940790120915004
 40
0.3
 50
135.00000000000179
 51
180.00000000000003
  0
LINE
  8
_0-1_
  6
CONTINUOUS
 62
    7
 10
74.14213712024295
 20
-28.192261983491186
 11
74.14213712024295
 21
-21.940790120915004
  0
ARC
  8
_0-1_
  6
CONTINUOUS
 62
    7
 10
75.14213712024295
 20
-28.192261983491186
 40
1
 50
180
 51
270
  0
LINE
  8
_0-1_
  6
CONTINUOUS
 62
    7
 10
78.842137120242995
 20
-29.192261983491186
 11
75.14213712024295
 21
-29.192261983491186
  0
ARC
  8
_0-1_
  6
CONTINUOUS
 62
    7
 10
78.842137120242995
 20
-28.892261983491174
 40
0.3
 50
270
 51
0
  0
LINE
  8
_0-1_
  6
CONTINUOUS
 62
    7
 10
73.442137120242833
 20
8.8077380165088144
 11
78.14213712024295
 21
8.8077380165088144
  0
ARC
  8
_0-1_
  6
CONTINUOUS
 62
    7
 10
73.842137120242953
 20
4.507738016508803
 40
0.3
 50
0
 51
90.000000000000014
  0
LINE
  8
_0-1_
  6
CONTINUOUS
 62
    7
 10
69.442137120242791
 20
4.8077380165088144
 11
70.893608982819075
 21
4.8077380165088144
  0
ARC
  8
_0-1_
  6
CONTINUOUS
 62
    7
 10
70.893608982819075
 20
5.1077380165088258
 40
0.3
 50
270
 51
314.99999999999801
  0
LINE
  8
_0-1_
  6
CONTINUOUS
 62
    7
 10
71.105741017175006
 20
4.895605982152837
 11
71.430005085886961
 21
5.2198700508647633
  0
ARC
  8
_0-1_
  6
CONTINUOUS
 62
    7
 10
71.642137120242893
 20
5.007738016508803
 40
0.3
 50
45.000000000003844
 51
134.99999999999619
  0
LINE
  8
_0-1_
  6
CONTINUOUS
 62
    7
 10
72.178533223310779
 20
4.895605982152837
 11
71.854269154598825
 21
5.2198700508647633
  0
ARC
  8
_0-1_
  6
CONTINUOUS
 62
    7
 10
72.390665257666711
 20
5.1077380165088258
 40
0.3
 50
225.00000000000179
 51
270
  0
LINE
  8
_0-1_
  6
CONTINUOUS
 62
    7
 10
73.842137120242953
 20
4.8077380165088144
 11
72.390665257666711
 21
4.8077380165088144
  0
LINE
  8
_0-1_
  6
CONTINUOUS
 62
    7
 10
-54.857862879699638
 20
2.3077380059636212
 11
-59.857862879699866
 21
2.3077380059636212
  0
ARC
  8
_0-1_
  6
CONTINUOUS
 62
    7
 10
-73.427822661302486
 20
10.50469624430216
 40
12.93500726993785
 50
358.03149910474161
 51
31.083108863399474
  0
ARC
  8
_0-1_
  6
CONTINUOUS
 62
    7
 10
-55.963040722820125
 20
17.979997979488736
 40
13.58082795508666
 50
210.46500008218902
 51
249.28625005908279
  0
ARC
  8
_0-1_
  6
CONTINUOUS
 62
    7
 10
-55.676264799800521
 20
16.01118225548462
 40
12.961410166444701
 50
186.67609384360941
 51
242.91471485564409
  0
LINE
  8
_0-1_
  6
CONTINUOUS
 62
    7
 10
-59.805578794902118
 20
8.5458680392374404
 11
-60.956455262677224
 21
4.6311506655612007
  0
LINE
  8
_0-1_
  6
CONTINUOUS
 62
    7
 10
-54.857862879699638
 20
5.277045928784311
 11
-60.766570377477166
 21
5.277045928784311
  0
ARC
  8
_0-1_
  6
CONTINUOUS
 62
    7
 10
-58.823100627991636
 20
9.8578294528727852
 40
6.0500914469094669
 50
252.18530044432094
 51
270.00000000000006
  0
LINE
  8
_0-1_
  6
CONTINUOUS
 62
    7
 10
-61.577805670772392
 20
4.4712529293984531
 11
-60.674062998096502
 21
4.0978342427687053
  0
ARC
  8
_0-1_
  6
CONTINUOUS
 62
    7
 10
-60.541851400231764
 20
4.5092624720619838
 40
0.4321493890649619
 50
163.61734337442391
 51
252.18530044432086
  0
LINE
  8
_0-1_
  6
CONTINUOUS
 62
    7
 10
-54.857862879699638
 20
3.8077380059636212
 11
-59.857862879699638
 21
3.8077380059636212
  0
LINE
  8
_0-1_
  6
CONTINUOUS
 62
    7
 10
-54.857862879699638
 20
9.1663904303689847
 11
-59.636660101958711
 21
9.1663904303689847
  0
ARC
  8
_0-1_
  6
CONTINUOUS
 62
    7
 10
-58.976371070011197
 20
8.3020916522392341
 40
0.8642987781299239
 50
90
 51
163.61734337442496
  0
ARC
  8
_0-1_
  6
CONTINUOUS
 62
    7
 10
-59.636660101958711
 20
10.030689208498963
 40
0.8642987781299239
 50
178.0314991047415
 51
270
  0
ARC
  8
_0-1_
  6
CONTINUOUS
 62
    7
 10
-63.083881814303282
 20
16.726021766084706
 40
0.8642987781299239
 50
31.02465151533098
 51
98.227350766669431
  0
ARC
  8
_0-1_
  6
CONTINUOUS
 62
    7
 10
-63.4564980351835
 20
11.471349669817393
 40
6.1151444108038167
 50
87.666972256082175
 51
143.9756376520362
  0
ARC
  8
_0-1_
  6
CONTINUOUS
 62
    7
 10
-67.755211398130342
 20
14.597341277438865
 40
0.8
 50
143.9756376520354
 51
186.67609384360878
  0
ARC
  8
_0-1_
  6
CONTINUOUS
 62
    7
 10
-46.259227724216004
 20
11.471349669817393
 40
6.1151444108038167
 50
36.02436234796378
 51
92.333027743917782
  0
ARC
  8
_0-1_
  6
CONTINUOUS
 62
    7
 10
-54.039460959598756
 20
16.01118225548462
 40
12.961410166444701
 50
297.08528514435568
 51
353.32390615639048
  0
ARC
  8
_0-1_
  6
CONTINUOUS
 62
    7
 10
-53.752685036579152
 20
17.979997979488736
 40
13.58082795508666
 50
290.71374994091701
 51
329.53499991781081
  0
ARC
  8
_0-1_
  6
CONTINUOUS
 62
    7
 10
-41.960514361269162
 20
14.597341277438865
 40
0.8
 50
353.32390615639122
 51
36.024362347964598
  0
ARC
  8
_0-1_
  6
CONTINUOUS
 62
    7
 10
-36.287903098096791
 20
10.50469624430216
 40
12.93500726993785
 50
148.91689113660041
 51
181.9685008952583
  0
LINE
  8
_0-1_
  6
CONTINUOUS
 62
    7
 10
-54.857862879699638
 20
9.1663904303689847
 11
-50.079065657440566
 21
9.1663904303689847
  0
LINE
  8
_0-1_
  6
CONTINUOUS
 62
    7
 10
-54.857862879699638
 20
3.8077380059636212
 11
-49.857862879699752
 21
3.8077380059636212
  0
LINE
  8
_0-1_
  6
CONTINUOUS
 62
    7
 10
-54.857862879699638
 20
5.277045928784311
 11
-48.949155381921997
 21
5.277045928784311
  0
ARC
  8
_0-1_
  6
CONTINUOUS
 62
    7
 10
-50.079065657440566
 20
10.030689208498963
 40
0.8642987781299239
 50
270
 51
1.9685008952583993
  0
ARC
  8
_0-1_
  6
CONTINUOUS
 62
    7
 10
-50.73935468938808
 20
8.3020916522392341
 40
0.8642987781299239
 50
16.3826566255748
 51
90
  0
ARC
  8
_0-1_
  6
CONTINUOUS
 62
    7
 10
-49.173874359167513
 20
4.5092624720619838
 40
0.4321493890649619
 50
287.81469955567894
 51
16.382656625575837
  0
LINE
  8
_0-1_
  6
CONTINUOUS
 62
    7
 10
-48.137920088626998
 20
4.4712529293984531
 11
-49.041662761303002
 21
4.0978342427687053
  0
ARC
  8
_0-1_
  6
CONTINUOUS
 62
    7
 10
-50.892625131407641
 20
9.8578294528727852
 40
6.0500914469094669
 50
270
 51
287.81469955567889
  0
LINE
  8
_0-1_
  6
CONTINUOUS
 62
    7
 10
-49.910146964497159
 20
8.5458680392374404
 11
-48.759270496722166
 21
4.6311506655612007
  0
ARC
  8
_0-1_
  6
CONTINUOUS
 62
    7
 10
-46.631843945096222
 20
16.726021766084706
 40
0.8642987781299239
 50
81.772649233330569
 51
148.97534848466901
  0
LINE
  8
_0-1_
  6
CONTINUOUS
 62
    7
 10
-54.857862879699638
 20
2.3077380059636212
 11
-49.857862879699752
 21
2.3077380059636212
  0
LINE
  8
_0-1_
  6
CONTINUOUS
 62
    7
 10
-60.357862879699752
 20
2.8077380059636212
 11
-60.357862879699752
 21
3.3077380059636212
  0
LINE
  8
_0-1_
  6
CONTINUOUS
 62
    7
 10
-49.357862879699638
 20
2.8077380059636212
 11
-49.357862879699638
 21
3.3077380059636212
  0
ARC
  8
_0-1_
  6
CONTINUOUS
 62
    7
 10
-59.857862879699638
 20
3.3077380059636212
 40
0.5
 50
90
 51
180
  0
ARC
  8
_0-1_
  6
CONTINUOUS
 62
    7
 10
-59.857862879699866
 20
2.8077380059636212
 40
0.5
 50
180
 51
270
  0
ARC
  8
_0-1_
  6
CONTINUOUS
 62
    7
 10
-49.857862879699752
 20
3.3077380059636212
 40
0.5
 50
0
 51
90
  0
ARC
  8
_0-1_
  6
CONTINUOUS
 62
    7
 10
-49.857862879699752
 20
2.8077380059636212
 40
0.5
 50
270
 51
359.99999999999977
  0
LINE
  8
_0-1_
  6
CONTINUOUS
 62
    7
 10
-54.857862879699638
 20
9.4663904303689392
 11
-51.857862879699638
 21
9.4663904303689392
  0
LINE
  8
_0-1_
  6
CONTINUOUS
 62
    7
 10
-54.857862879699638
 20
9.4663904303689392
 11
-57.857862879699638
 21
9.4663904303689392
  0
LINE
  8
_0-1_
  6
CONTINUOUS
 62
    7
 10
-57.857862879699638
 20
9.1663904303689847
 11
-57.857862879699638
 21
9.4663904303689392
  0
LINE
  8
_0-1_
  6
CONTINUOUS
 62
    7
 10
-51.857862879699638
 20
9.1663904303689847
 11
-51.857862879699638
 21
9.4663904303689392
  0
LINE
  8
_0-1_
  6
CONTINUOUS
 62
    7
 10
74.842137120242953
 20
24.807738016508758
 11
71.890665257666654
 21
24.807738016508758
  0
LINE
  8
_0-1_
  6
CONTINUOUS
 62
    7
 10
6.1421371202426087
 20
4.3077380165088144
 11
35.142137120242836
 21
14.307738016508814
  0
ARC
  8
_0-1_
  6
CONTINUOUS
 62
    7
 10
65.442137120242791
 20
5.1077380165088258
 40
0.3
 50
180
 51
315.00000000001148
  0
LINE
  8
_0-1_
  6
CONTINUOUS
 62
    7
 10
65.654269154598836
 20
4.8956059821528655
 11
66.066401188866706
 21
5.3077380164208208
  0
LINE
  8
_0-1_
  6
CONTINUOUS
 62
    7
 10
68.842137120242882
 20
5.3077380164208208
 11
66.066401188866706
 21
5.3077380164208208
  0
ARC
  8
_0-1_
  6
CONTINUOUS
 62
    7
 10
68.842137120242882
 20
5.6077380164208321
 40
0.3
 50
270
 51
0
  0
LINE
  8
_0-1_
  6
CONTINUOUS
 62
    7
 10
69.142137120242836
 20
8.5592098789970024
 11
69.142137120242836
 21
5.6077380164208321
  0
ARC
  8
_0-1_
  6
CONTINUOUS
 62
    7
 10
68.842137120242882
 20
8.5592098789970024
 40
0.3
 50
0
 51
44.999999999998039
  0
LINE
  8
_0-1_
  6
CONTINUOUS
 62
    7
 10
69.054269154598813
 20
8.7713419133529342
 11
68.730005085886859
 21
9.0956059820648889
  0
ARC
  8
_0-1_
  6
CONTINUOUS
 62
    7
 10
68.942137120242791
 20
9.3077380164208208
 40
0.3
 50
135.00000000000384
 51
224.99999999999619
  0
LINE
  8
_0-1_
  6
CONTINUOUS
 62
    7
 10
69.054269154598813
 20
9.8441341194887073
 11
68.730005085886859
 21
9.5198700507767526
  0
ARC
  8
_0-1_
  6
CONTINUOUS
 62
    7
 10
68.842137120242768
 20
10.056266153844639
 40
0.3
 50
315.00000000000199
 51
0
  0
LINE
  8
_0-1_
  6
CONTINUOUS
 62
    7
 10
-34.857862879757391
 20
6.3077380059639054
 11
-1.8578628797573913
 21
19.307738016508814
  0
LINE
  8
_0-1_
  6
CONTINUOUS
 62
    7
 10
-44.857862879757278
 20
-4.1922619940363219
 11
-34.857862879757391
 21
6.3077380059639054
  0
ARC
  8
_0-1_
  6
CONTINUOUS
 62
    7
 10
-39.157862879757346
 20
-12.992261994036049
 40
0.3
 50
0
 51
90
  0
LINE
  8
_0-1_
  6
CONTINUOUS
 62
    7
 10
-38.857862879757391
 20
-13.39226199403614
 11
-38.857862879757391
 21
-12.992261994036049
  0
ARC
  8
_0-1_
  6
CONTINUOUS
 62
    7
 10
-38.557862879757437
 20
-13.39226199403614
 40
0.3
 50
180
 51
270
  0
LINE
  8
_0-1_
  6
CONTINUOUS
 62
    7
 10
-36.157862879757459
 20
-13.692261994036322
 11
-38.557862879757437
 21
-13.692261994036322
  0
ARC
  8
_0-1_
  6
CONTINUOUS
 62
    7
 10
-36.157862879757459
 20
-13.39226199403614
 40
0.3
 50
270
 51
0
  0
LINE
  8
_0-1_
  6
CONTINUOUS
 62
    7
 10
-35.857862879757505
 20
-12.992261994036049
 11
-35.857862879757505
 21
-13.39226199403614
  0
ARC
  8
_0-1_
  6
CONTINUOUS
 62
    7
 10
-35.55786287975755
 20
-12.992261994036049
 40
0.3
 50
90
 51
180
  0
LINE
  8
_0-1_
  6
CONTINUOUS
 62
    7
 10
-9.8578628797573913
 20
-8.6922619940363219
 11
6.1421371202426087
 21
4.3077380165088144
  0
LINE
  8
_0-1_
  6
CONTINUOUS
 62
    7
 10
19.574722014037746
 20
11.055230966117882
 11
5.1556049271470954
 21
6.083121625810783
  0
ARC
  8
_0-1_
  6
CONTINUOUS
 62
    7
 10
-19.857862879757391
 20
6.8428447219991213
 40
2
 50
111.50143433989672
 51
180
  0
LINE
  8
_0-1_
  6
CONTINUOUS
 62
    7
 10
-20.590911917037175
 20
8.7036615074306738
 11
-1.2882561788804026
 21
16.307738016508814
  0
LINE
  8
_0-1_
  6
CONTINUOUS
 62
    7
 10
18.694547169075435
 20
16.307738016508814
 11
-1.2882561788804026
 21
16.307738016508814
  0
ARC
  8
_0-1_
  6
CONTINUOUS
 62
    7
 10
18.694547169075435
 20
13.607738016508826
 40
2.7000000000000002
 50
289.02560603756859
 51
90.000000000000028
  0
ARC
  8
_0-1_
  6
CONTINUOUS
 62
    7
 10
-41.02452954642402
 20
-6.6922619940363219
 40
2
 50
136.39718102729731
 51
270
  0
LINE
  8
_0-1_
  6
CONTINUOUS
 62
    7
 10
-42.472805408492974
 20
-5.3129516492086495
 11
-34.247234108901495
 21
3.3238982153626822
  0
LINE
  8
_0-1_
  6
CONTINUOUS
 62
    7
 10
-26.590911917037175
 20
6.3400251418769713
 11
-34.247234108901495
 21
3.3238982153626822
  0
ARC
  8
_0-1_
  6
CONTINUOUS
 62
    7
 10
-25.857862879757391
 20
4.4792083564456462
 40
2
 50
0
 51
111.50143433989658
  0
ARC
  8
_0-1_
  6
CONTINUOUS
 62
    7
 10
75.143958102972505
 20
14.602472986612966
 40
0.3
 50
156.92006633113297
 51
214.9999999999996
  0
LINE
  8
_0-1_
  6
CONTINUOUS
 62
    7
 10
69.142137120242836
 20
12.615516463026424
 11
69.142137120242836
 21
10.056266153844639
  0
ARC
  8
_0-1_
  6
CONTINUOUS
 62
    7
 10
71.14213712024295
 20
16.307738016508758
 40
4.0499999999999998
 50
336.92006633113311
 51
238.07993366886222
  0
ARC
  8
_0-1_
  6
CONTINUOUS
 62
    7
 10
68.842137120242839
 20
12.615516463026424
 40
0.3
 50
0
 51
58.079933668862189
  0
ARC
  8
_0-1_
  6
CONTINUOUS
 62
    7
 10
71.890665257666654
 20
24.50773801650876
 40
0.3
 50
90
 51
134.99999999999804
  0
LINE
  8
_0-1_
  6
CONTINUOUS
 62
    7
 10
71.678533223310723
 20
24.719870050864749
 11
71.354269154598768
 21
24.395605982152823
  0
ARC
  8
_0-1_
  6
CONTINUOUS
 62
    7
 10
71.142137120242836
 20
24.607738016508783
 40
0.3
 50
225.00000000000384
 51
314.99999999999619
  0
LINE
  8
_0-1_
  6
CONTINUOUS
 62
    7
 10
70.60574101717495
 20
24.719870050864749
 11
70.930005085886904
 21
24.395605982152823
  0
ARC
  8
_0-1_
  6
CONTINUOUS
 62
    7
 10
70.393608982819018
 20
24.50773801650876
 40
0.3
 50
45.000000000001982
 51
90
  0
LINE
  8
_0-1_
  6
CONTINUOUS
 62
    7
 10
35.142137120242836
 20
14.307738016508814
 11
63.167176305292188
 21
14.307738016508814
  0
ARC
  8
_0-1_
  6
CONTINUOUS
 62
    7
 10
63.167176305292188
 20
14.007738016508817
 40
0.3
 50
16.087702538161356
 51
90
  0
LINE
  8
_0-1_
  6
CONTINUOUS
 62
    7
 10
-1.8578628797573913
 20
19.307738016508814
 11
63.52636401437907
 21
19.307738016508814
  0
ARC
  8
_0-1_
  6
CONTINUOUS
 62
    7
 10
63.52636401437907
 20
19.607738016508812
 40
0.3
 50
270
 51
336.57237349127968
  0
LINE
  8
_0-1_
  6
CONTINUOUS
 62
    7
 10
65.142137120242836
 20
5.1077380165088258
 11
65.142137120242836
 21
10.904035582066363
  0
ARC
  8
_0-1_
  6
CONTINUOUS
 62
    7
 10
71.14213712024295
 20
16.307738016508758
 40
8
 50
196.08770253816144
 51
220.62069995133447
  0
ARC
  8
_0-1_
  6
CONTINUOUS
 62
    7
 10
64.842137120242839
 20
10.904035582066363
 40
0.3
 50
0
 51
40.620699951334174
  0
ARC
  8
_0-1_
  6
CONTINUOUS
 62
    7
 10
71.14213712024295
 20
16.307738016508758
 40
8
 50
121.20303307281048
 51
156.57237349128019
  0
ARC
  8
_0-1_
  6
CONTINUOUS
 62
    7
 10
66.842137120242953
 20
23.407033756228294
 40
0.3
 50
301.20303307281097
 51
0
  0
LINE
  8
_0-1_
  6
CONTINUOUS
 62
    7
 10
67.14213712024295
 20
24.50773801650876
 11
67.14213712024295
 21
23.407033756228294
  0
LINE
  8
_0-1_
  6
CONTINUOUS
 62
    7
 10
67.442137120242947
 20
24.807738016508758
 11
70.393608982819018
 21
24.807738016508758
  0
ARC
  8
_0-1_
  6
CONTINUOUS
 62
    7
 10
67.442137120242947
 20
24.50773801650876
 40
0.3
 50
90
 51
180
  0
ARC
  8
_0-1_
  6
CONTINUOUS
 62
    7
 10
74.842137120242953
 20
24.50773801650876
 40
0.3
 50
0
 51
90
  0
LINE
  8
_0-1_
  6
CONTINUOUS
 62
    7
 10
75.14213712024295
 20
24.50773801650876
 11
75.14213712024295
 21
23.407033756228294
  0
ARC
  8
_0-1_
  6
CONTINUOUS
 62
    7
 10
75.442137120242947
 20
23.407033756228294
 40
0.3
 50
180
 51
238.79696692718906
  0
LINE
  8
_0-1_
  6
CONTINUOUS
 62
    7
 10
75.944837183412304
 20
12.935665085555016
 11
74.898212489685804
 21
14.430400055707651
  0
ARC
  8
_0-1_
  6
CONTINUOUS
 62
    7
 10
76.190582796699005
 20
13.107738016460324
 40
0.3
 50
214.99999999999903
 51
270
  0
LINE
  8
_0-1_
  6
CONTINUOUS
 62
    7
 10
76.190582796699005
 20
12.807738016460327
 11
78.145707638178067
 21
12.807738016460327
  0
ARC
  8
_0-1_
  6
CONTINUOUS
 62
    7
 10
71.14213712024295
 20
16.307738016508758
 40
8
 50
335.44387469289103
 51
58.796966927189523
  0
ARC
  8
_0-1_
  6
CONTINUOUS
 62
    7
 10
78.145707638178067
 20
13.107738016460324
 40
0.3
 50
270
 51
335.44387469289069
  0
LINE
  8
_0-1_
  6
CONTINUOUS
 62
    7
 10
-29.857862879757278
 20
-22.192261994036492
 11
-9.8578628797572776
 21
-22.192261994036492
  0
LINE
  8
_0-1_
  6
CONTINUOUS
 62
    7
 10
-29.857862879757278
 20
-2.1922619940364925
 11
-29.857862879757278
 21
-22.192261994036492
  0
LINE
  8
_0-1_
  6
CONTINUOUS
 62
    7
 10
-9.8578628797572776
 20
-2.1922619940364925
 11
-9.8578628797572776
 21
-22.192261994036492
  0
LINE
  8
_0-1_
  6
CONTINUOUS
 62
    7
 10
-29.857862879757278
 20
-2.1922619940364925
 11
-9.8578628797572776
 21
-2.1922619940364925
  0
CIRCLE
  8
_0-1_
  6
CONTINUOUS
 62
    7
 10
-19.85786287975705
 20
-6.6922619940363788
 40
4
  0
LINE
  8
_0-1_
  6
CONTINUOUS
 62
    7
 10
-44.85786287975705
 20
0.8577591606548438
 11
-44.85786287975705
 21
-27.592261680082839
  0
LINE
  8
_0-1_
  6
CONTINUOUS
 62
    7
 10
-64.85786287975705
 20
0.8577591606548438
 11
-44.85786287975705
 21
0.8577591606548438
  0
LINE
  8
_0-1_
  6
CONTINUOUS
 62
    7
 10
-39.157862879757346
 20
-12.692261994036322
 11
-44.85786287975705
 21
-12.692261994036322
  0
LINE
  8
_0-1_
  6
CONTINUOUS
 62
    7
 10
-51.857862879699638
 20
0.8577591606548438
 11
-51.857862879699638
 21
2.3077380059636212
  0
LINE
  8
_0-1_
  6
CONTINUOUS
 62
    7
 10
-57.857862879699638
 20
0.8577591606548438
 11
-57.857862879699638
 21
2.3077380059636212
  0
LINE
  8
_0-1_
  6
DASHED1
 62
    3
 10
-51.60786287975705
 20
0.8577591606548438
 11
-51.60786287975705
 21
-1.1422484012229219
  0
LINE
  8
_0-1_
  6
DASHED1
 62
    3
 10
-51.857862879699638
 20
-1.1422484012229219
 11
-51.857862879699638
 21
0.8577591606548438
  0
LINE
  8
_0-1_
  6
DASHED1
 62
    3
 10
-57.857862879699638
 20
-1.1422484012229219
 11
-57.857862879699638
 21
0.8577591606548438
  0
LINE
  8
_0-1_
  6
DASHED1
 62
    3
 10
-58.10786287975705
 20
0.8577591606548438
 11
-58.10786287975705
 21
-1.1422484012229219
  0
LINE
  8
_0-1_
  6
DASHED1
 62
    3
 10
-64.85786287975705
 20
-20.692261994035782
 11
-44.85786287975705
 21
-20.692261994035782
  0
LINE
  8
_0-1_
  6
DASHED1
 62
    3
 10
-57.857862879717715
 20
-8.8922619940364243
 11
-57.057862879724354
 21
-9.6922619940363788
  0
LINE
  8
_0-1_
  6
DASHED1
 62
    3
 10
-52.657862879724263
 20
-9.6922619940363788
 11
-57.057862879724354
 21
-9.6922619940363788
  0
LINE
  8
_0-1_
  6
DASHED1
 62
    3
 10
-52.657862879724263
 20
-9.6922619940363788
 11
-51.857862879717715
 21
-8.8922619940364243
  0
LINE
  8
_0-1_
  6
DASHED1
 62
    3
 10
-51.857862879717715
 20
-8.8922619940364243
 11
-57.857862879717715
 21
-8.8922619940364243
  0
LINE
  8
_0-1_
  6
DASHED1
 62
    3
 10
-57.857862879699638
 20
-8.8922619940364243
 11
-57.857862879699638
 21
-6.1422484012229255
  0
LINE
  8
_0-1_
  6
DASHED1
 62
    3
 10
-51.857862879699638
 20
-8.8922619940364243
 11
-51.857862879699638
 21
-6.1422484012229255
  0
LINE
  8
_0-1_
  6
DASHED1
 62
    3
 10
-49.457862879757187
 20
-4.1922619940363219
 11
-44.857862879757278
 21
-4.1922619940363219
  0
LINE
  8
_0-1_
  6
DASHED1
 62
    3
 10
-49.757862879757141
 20
-4.4922619940362765
 11
-49.757862879757141
 21
-9.39226199403614
  0
ARC
  8
_0-1_
  6
DASHED1
 62
    3
 10
-50.057862879757209
 20
-9.39226199403614
 40
0.3
 50
270
 51
0
  0
LINE
  8
_0-1_
  6
DASHED1
 62
    3
 10
-50.057862879757209
 20
-9.6922619940363219
 11
-59.657862879757118
 21
-9.6922619940363219
  0
ARC
  8
_0-1_
  6
DASHED1
 62
    3
 10
-59.657862879757118
 20
-9.39226199403614
 40
0.3
 50
180
 51
270
  0
LINE
  8
_0-1_
  6
DASHED1
 62
    3
 10
-59.957862879757187
 20
-9.39226199403614
 11
-59.957862879757187
 21
-4.4922619940362765
  0
ARC
  8
_0-1_
  6
DASHED1
 62
    3
 10
-64.557862879757437
 20
-4.4922619940362765
 40
0.3
 50
90
 51
180
  0
ARC
  8
_0-1_
  6
DASHED1
 62
    3
 10
-64.557862879757437
 20
-13.39226199403614
 40
0.3
 50
180
 51
270
  0
LINE
  8
_0-1_
  6
DASHED1
 62
    3
 10
-64.557862879757437
 20
-13.692261994036322
 11
-62.157862879757346
 21
-13.692261994036322
  0
ARC
  8
_0-1_
  6
DASHED1
 62
    3
 10
-62.157862879757346
 20
-13.39226199403614
 40
0.3
 50
270
 51
0
  0
LINE
  8
_0-1_
  6
DASHED1
 62
    3
 10
-61.857862879757391
 20
-12.992261994036049
 11
-61.857862879757391
 21
-13.39226199403614
  0
ARC
  8
_0-1_
  6
DASHED1
 62
    3
 10
-61.557862879757437
 20
-12.992261994036049
 40
0.3
 50
90
 51
180
  0
LINE
  8
_0-1_
  6
DASHED1
 62
    3
 10
-52.157862879757346
 20
-12.692261994036322
 11
-61.557862879757437
 21
-12.692261994036322
  0
ARC
  8
_0-1_
  6
DASHED1
 62
    3
 10
-52.157862879757346
 20
-12.992261994036049
 40
0.3
 50
0
 51
90
  0
LINE
  8
_0-1_
  6
DASHED1
 62
    3
 10
-51.857862879757391
 20
-13.39226199403614
 11
-51.857862879757391
 21
-12.992261994036049
  0
ARC
  8
_0-1_
  6
DASHED1
 62
    3
 10
-51.557862879757437
 20
-13.39226199403614
 40
0.3
 50
180
 51
270
  0
LINE
  8
_0-1_
  6
DASHED1
 62
    3
 10
-49.157862879757346
 20
-13.692261994036322
 11
-51.557862879757437
 21
-13.692261994036322
  0
ARC
  8
_0-1_
  6
DASHED1
 62
    3
 10
-49.157862879757346
 20
-13.39226199403614
 40
0.3
 50
270
 51
0
  0
LINE
  8
_0-1_
  6
DASHED1
 62
    3
 10
-48.857862879757391
 20
-12.992261994036049
 11
-48.857862879757391
 21
-13.39226199403614
  0
ARC
  8
_0-1_
  6
DASHED1
 62
    3
 10
-48.557862879757437
 20
-12.992261994036049
 40
0.3
 50
90
 51
180
  0
LINE
  8
_0-1_
  6
DASHED1
 62
    3
 10
-44.85786287975705
 20
-12.692261994036322
 11
-48.557862879757437
 21
-12.692261994036322
  0
LINE
  8
_0-1_
  6
DASHED1
 62
    3
 10
-64.85786287975705
 20
-1.1422484012229219
 11
-57.857862879699411
 21
-1.1422484012229219
  0
LINE
  8
_0-1_
  6
DASHED1
 62
    3
 10
-51.857862879699411
 20
-1.1422484012229219
 11
-44.85786287975705
 21
-1.1422484012229219
  0
LINE
  8
_0-1_
  6
DASHED1
 62
    3
 10
-64.557862879757437
 20
-4.1922619940363219
 11
-60.257862879757141
 21
-4.1922619940363219
  0
ARC
  8
_0-1_
  6
DASHED1
 62
    3
 10
-49.457862879757187
 20
-4.4922619940362765
 40
0.3
 50
90
 51
180
  0
ARC
  8
_0-1_
  6
DASHED1
 62
    3
 10
-60.257862879757141
 20
-4.4922619940362765
 40
0.3
 50
0
 51
90.000000000000014
  0
LINE
  8
_0-1_
  6
DASHED1
 62
    3
 10
-54.853833948478041
 20
-5.6422484012228438
 11
-54.853833948478041
 21
-1.1422484012228438
  0
LINE
  8
_0-1_
  6
DASHED1
 62
    3
 10
-50.870833948478037
 20
-6.1422484012228438
 11
-58.792833948478034
 21
-6.1422484012228438
  0
ARC
  8
_0-1_
  6
DASHED1
 62
    3
 10
-50.857833948478039
 20
-4.8842484012228411
 40
1.258
 50
269.40548706054687
 51
322.95143127441401
  0
ARC
  8
_0-1_
  6
DASHED1
 62
    3
 10
-50.327833948478037
 20
14.296751598777156
 40
20.446000000000002
 50
257.21112060546875
 51
268.47799682617188
  0
ARC
  8
_0-1_
  6
DASHED1
 62
    3
 10
-58.849833948478036
 20
-4.8842484012228411
 40
1.258
 50
217.04856872558594
 51
270.59451293945312
  0
ARC
  8
_0-1_
  6
DASHED1
 62
    3
 10
-59.379833948478037
 20
14.296751598777156
 40
20.446000000000002
 50
271.52200317382812
 51
282.78887939453125
  0
LINE
  8
_0-1_
  6
DASHED1
 62
    3
 10
-49.853833948478041
 20
-1.1422484012228438
 11
-49.853833948478041
 21
-5.6422484012228438
  0
LINE
  8
_0-1_
  6
DASHED1
 62
    3
 10
-49.853833948478041
 20
-1.1422484012228438
 11
-59.853833948478041
 21
-1.1422484012228438
  0
LINE
  8
_0-1_
  6
DASHED1
 62
    3
 10
-59.853833948478041
 20
-1.1422484012228438
 11
-59.853833948478041
 21
-5.6422484012228438
  0
LINE
  8
_0-1_
  6
CONTINUOUS
 62
    6
 10
-57.357862879701685
 20
2.3077380059636212
 11
-57.357862879701685
 21
0.8577591606548438
  0
LINE
  8
_0-1_
  6
CONTINUOUS
 62
    6
 10
-52.357862879701685
 20
2.3077380059636212
 11
-52.357862879701685
 21
0.8577591606548438
  0
LINE
  8
_0-1_
  6
DASHED1
 62
    5
 10
-57.357862879701685
 20
0.8577591606548438
 11
-57.357862879701685
 21
-1.1422484012229219
  0
LINE
  8
_0-1_
  6
DASHED1
 62
    5
 10
-52.357862879701685
 20
0.8577591606548438
 11
-52.357862879701685
 21
-1.1422484012229219
  0
LINE
  8
_0-1_
  6
DASHED1
 62
    5
 10
-52.357862879701685
 20
-6.1422484012229255
 11
-52.357862879701685
 21
-9.3922619940364243
  0
LINE
  8
_0-1_
  6
DASHED1
 62
    5
 10
-57.357862879701685
 20
-6.1422484012229255
 11
-57.357862879701685
 21
-9.3922619940364243
  0
LINE
  8
_0-1_
  6
CONTINUOUS
 62
    7
 10
-41.02452954642402
 20
-8.6922619940363219
 11
-29.857862879757278
 21
-8.6922619940363219
  0
LINE
  8
_0-1_
  6
CONTINUOUS
 62
    7
 10
-29.857862879757278
 20
-12.692261994036322
 11
-35.55786287975755
 21
-12.692261994036322
  0
LINE
  8
_0-1_
  6
CONTINUOUS
 62
    7
 10
-23.857862879757391
 20
4.4792083564456462
 11
-23.857862879757391
 21
-2.1922619940364925
  0
LINE
  8
_0-1_
  6
CONTINUOUS
 62
    7
 10
-21.857862879757391
 20
6.8428447219991213
 11
-21.857862879757391
 21
-2.1922619940364925
  0
LINE
  8
_0-1_
  6
CONTINUOUS
 62
    7
 10
-9.8578628797572776
 20
-6.1153209771939743
 11
5.1556049271470954
 21
6.083121625810783
  0
ARC
  8
_0-1_
  6
DASHED1
 62
    3
 10
-26.157862879757346
 20
-12.992261994036049
 40
0.3
 50
0
 51
90
  0
LINE
  8
_0-1_
  6
DASHED1
 62
    3
 10
-25.857862879757391
 20
-13.39226199403614
 11
-25.857862879757391
 21
-12.992261994036049
  0
ARC
  8
_0-1_
  6
DASHED1
 62
    3
 10
-25.557862879757437
 20
-13.39226199403614
 40
0.3
 50
180
 51
270
  0
LINE
  8
_0-1_
  6
DASHED1
 62
    3
 10
-23.157862879757346
 20
-13.692261994036322
 11
-25.557862879757437
 21
-13.692261994036322
  0
ARC
  8
_0-1_
  6
DASHED1
 62
    3
 10
-23.157862879757346
 20
-13.39226199403614
 40
0.3
 50
270
 51
0
  0
LINE
  8
_0-1_
  6
DASHED1
 62
    3
 10
-22.857862879757391
 20
-12.992261994036049
 11
-22.857862879757391
 21
-13.39226199403614
  0
ARC
  8
_0-1_
  6
DASHED1
 62
    3
 10
-22.557862879757437
 20
-12.992261994036049
 40
0.3
 50
90
 51
180
  0
LINE
  8
_0-1_
  6
DASHED1
 62
    3
 10
-13.157862879757346
 20
-12.692261994036322
 11
-22.557862879757437
 21
-12.692261994036322
  0
ARC
  8
_0-1_
  6
DASHED1
 62
    3
 10
-13.157862879757346
 20
-12.992261994036049
 40
0.3
 50
0
 51
90
  0
LINE
  8
_0-1_
  6
DASHED1
 62
    3
 10
-12.857862879757391
 20
-13.39226199403614
 11
-12.857862879757391
 21
-12.992261994036049
  0
ARC
  8
_0-1_
  6
DASHED1
 62
    3
 10
-12.557862879757437
 20
-13.39226199403614
 40
0.3
 50
180
 51
270
  0
LINE
  8
_0-1_
  6
DASHED1
 62
    3
 10
-10.157862879757346
 20
-13.692261994036322
 11
-12.557862879757437
 21
-13.692261994036322
  0
ARC
  8
_0-1_
  6
DASHED1
 62
    3
 10
-10.157862879757346
 20
-13.39226199403614
 40
0.3
 50
270
 51
0
  0
LINE
  8
_0-1_
  6
DASHED1
 62
    3
 10
-15.470380686062896
 20
-8.6922619940363219
 11
-13.029482590221306
 21
-8.6922619940363219
  0
ARC
  8
_0-1_
  6
DASHED1
 62
    3
 10
-15.470380686062896
 20
-7.6922619940363219
 40
1
 50
167.16041159309589
 51
270
  0
ARC
  8
_0-1_
  6
DASHED1
 62
    3
 10
-19.857862879758983
 20
-6.6922619940363219
 40
3.5000000000000009
 50
347.16041159309589
 51
356.2914268983892
  0
ARC
  8
_0-1_
  6
DASHED1
 62
    3
 10
-17.213412109062375
 20
-6.8636682989522839
 40
0.8499999999994308
 50
356.2914268983892
 51
176.29142689838218
  0
ARC
  8
_0-1_
  6
DASHED1
 62
    3
 10
-19.857862879757391
 20
-6.6922619940360946
 40
1.7999999999999998
 50
291.99183250708336
 51
356.29142689838216
  0
ARC
  8
_0-1_
  6
DASHED1
 62
    3
 10
-19.071466598003468
 20
-8.6394602089192958
 40
0.3
 50
111.99183250708309
 51
169.41870561160874
  0
ARC
  8
_0-1_
  6
DASHED1
 62
    3
 10
-19.857862879757391
 20
-8.4925558589371448
 40
0.5
 50
190.58129438838958
 51
349.41870561160852
  0
ARC
  8
_0-1_
  6
DASHED1
 62
    3
 10
-20.644259161511314
 20
-8.6394602089190684
 40
0.3
 50
10.581294388389688
 51
68.008167492914083
  0
ARC
  8
_0-1_
  6
DASHED1
 62
    3
 10
-19.857862879757391
 20
-6.6922619940360946
 40
1.7999999999999998
 50
201.99183250709132
 51
248.00816749291431
  0
ARC
  8
_0-1_
  6
DASHED1
 62
    3
 10
-21.805061094640365
 20
-7.4786582757902451
 40
0.3
 50
21.991832507091466
 51
79.418705611610747
  0
ARC
  8
_0-1_
  6
DASHED1
 62
    3
 10
-21.658156744658328
 20
-6.6922619940363219
 40
0.5
 50
100.58129438839185
 51
259.41870561161085
  0
ARC
  8
_0-1_
  6
DASHED1
 62
    3
 10
-21.805061094640365
 20
-5.9058657122823988
 40
0.3
 50
280.5812943883916
 51
338.00816749291681
  0
ARC
  8
_0-1_
  6
DASHED1
 62
    3
 10
-19.857862879757391
 20
-6.6922619940360946
 40
1.7999999999999998
 50
93.708573101663944
 51
158.00816749291681
  0
ARC
  8
_0-1_
  6
DASHED1
 62
    3
 10
-20.029269184675769
 20
-4.0478112233403678
 40
0.8500000000000711
 50
273.70857310166377
 51
93.708573101629796
  0
ARC
  8
_0-1_
  6
DASHED1
 62
    3
 10
-19.857862879758983
 20
-6.6922619940363219
 40
3.5000000000000009
 50
93.708573101629824
 51
102.83958840688375
  0
ARC
  8
_0-1_
  6
DASHED1
 62
    3
 10
-20.857862879757391
 20
-2.3047798003398938
 40
1
 50
180
 51
282.83958840688365
  0
ARC
  8
_0-1_
  6
DASHED1
 62
    3
 10
-25.857862879757391
 20
-6.6922619940363219
 40
2
 50
270
 51
0
  0
LINE
  8
_0-1_
  6
DASHED1
 62
    3
 10
-29.857862879757278
 20
-8.6922619940363219
 11
-25.857862879757391
 21
-8.6922619940363219
  0
LINE
  8
_0-1_
  6
DASHED1
 62
    3
 10
-26.157862879757346
 20
-12.692261994036322
 11
-29.857862879757278
 21
-12.692261994036322
  0
LINE
  8
_0-1_
  6
DASHED1
 62
    3
 10
-23.857862879757391
 20
-2.1922619940364925
 11
-23.857862879757391
 21
-6.6922619940363219
  0
LINE
  8
_0-1_
  6
DASHED1
 62
    3
 10
-21.857862879757391
 20
-2.1922619940364925
 11
-21.857862879757391
 21
-2.3047798003398938
  0
LINE
  8
_0-1_
  6
DASHED1
 62
    3
 10
-13.029482590221306
 20
-8.6922619940363219
 11
-9.8578628797572776
 21
-6.1153209771939743
  0
LINE
  8
_0-1_
  6
DASHED1
 62
    3
 10
-29.857862879757278
 20
-20.992261994036674
 11
-9.8578628797572776
 21
-20.992261994036674
  0
LINE
  8
_0-1_
  6
CONTINUOUS
 62
    7
 10
-20.806862879758871
 20
-6.3102619940363773
 11
-21.585862879758871
 21
-6.3102619940363773
  0
LINE
  8
_0-1_
  6
CONTINUOUS
 62
    7
 10
-20.806862879758871
 20
-7.0742619940363802
 11
-21.585862879758871
 21
-7.0742619940363802
  0
LINE
  8
_0-1_
  6
CONTINUOUS
 62
    7
 10
-20.239862879758871
 20
-7.6412619940363804
 11
-20.239862879758871
 21
-8.4202619940363803
  0
LINE
  8
_0-1_
  6
CONTINUOUS
 62
    7
 10
-19.475862879758868
 20
-7.6412619940363804
 11
-19.475862879758868
 21
-8.4202619940363803
  0
LINE
  8
_0-1_
  6
CONTINUOUS
 62
    7
 10
-18.908862879758868
 20
-7.0742619940363802
 11
-18.129862879758868
 21
-7.0742619940363802
  0
LINE
  8
_0-1_
  6
CONTINUOUS
 62
    7
 10
-18.908862879758868
 20
-6.3102619940363773
 11
-18.129862879758868
 21
-6.3102619940363773
  0
LINE
  8
_0-1_
  6
CONTINUOUS
 62
    7
 10
-19.475862879758868
 20
-5.7432619940363772
 11
-19.475862879758868
 21
-4.9642619940363772
  0
LINE
  8
_0-1_
  6
CONTINUOUS
 62
    7
 10
-20.239862879758871
 20
-5.7432619940363772
 11
-20.239862879758871
 21
-4.9642619940363772
  0
ARC
  8
_0-1_
  6
CONTINUOUS
 62
    7
 10
-20.806862879758871
 20
-5.7432619940363772
 40
0.566
 50
270
 51
0
  0
ARC
  8
_0-1_
  6
CONTINUOUS
 62
    7
 10
-18.908862879758868
 20
-5.7432619940363772
 40
0.566
 50
180
 51
270
  0
ARC
  8
_0-1_
  6
CONTINUOUS
 62
    7
 10
-18.908862879758868
 20
-7.6412619940363804
 40
0.566
 50
90
 51
180
  0
ARC
  8
_0-1_
  6
CONTINUOUS
 62
    7
 10
-20.806862879758871
 20
-7.6412619940363804
 40
0.566
 50
0
 51
90
  0
ARC
  8
_0-1_
  6
CONTINUOUS
 62
    7
 10
-19.857862879758869
 20
-6.6922619940363788
 40
1.77
 50
347.52572631835937
 51
12.474273681640634
  0
ARC
  8
_0-1_
  6
CONTINUOUS
 62
    7
 10
-19.857862879758869
 20
-6.6922619940363788
 40
1.77
 50
77.52581787109375
 51
102.47418212890625
  0
ARC
  8
_0-1_
  6
CONTINUOUS
 62
    7
 10
-19.857862879758869
 20
-6.6922619940363788
 40
1.77
 50
167.52572631835937
 51
192.47427368164065
  0
ARC
  8
_0-1_
  6
CONTINUOUS
 62
    7
 10
-19.857862879758869
 20
-6.6922619940363788
 40
1.77
 50
257.52581787109375
 51
282.47418212890625
  0
LINE
  8
_0-1_
  6
CONTINUOUS
 62
    7
 10
63.725938633182928
 20
5.3077380164206795
 11
63.29793863318293
 21
5.3077380164206795
  0
LINE
  8
_0-1_
  6
CONTINUOUS
 62
    7
 10
63.725938633182928
 20
13.307738016420679
 11
63.29793863318293
 21
13.307738016420679
  0
ARC
  8
_0-1_
  6
CONTINUOUS
 62
    7
 10
66.925938633182909
 20
9.3077380164206787
 40
5.4000000000000012
 50
132.20544433593747
 51
227.79454040527341
  0
LINE
  8
_0-1_
  6
CONTINUOUS
 62
    7
 10
63.725938633181968
 20
5.3077380164207355
 11
63.725938633182992
 21
13.307738016420792
  0
LINE
  8
_0-1_
  6
DASHED1
 62
    3
 10
77.725938633182651
 20
7.8077380164206769
 11
77.225938633182651
 21
7.3077380164206769
  0
LINE
  8
_0-1_
  6
DASHED1
 62
    3
 10
77.725938633182651
 20
10.807738016420677
 11
77.725938633182651
 21
7.8077380164206769
  0
LINE
  8
_0-1_
  6
DASHED1
 62
    3
 10
77.725938633182651
 20
10.807738016420677
 11
77.225938633182651
 21
11.307738016420677
  0
LINE
  8
_0-1_
  6
DASHED1
 62
    5
 10
77.225938633182651
 20
7.3077380164206769
 11
77.225938633182651
 21
11.307738016420677
  0
LINE
  8
_0-1_
  6
CENTER1
 62
    4
 10
47.510974626296701
 20
9.3077380164207639
 11
78.525204751336375
 21
9.3077380164207639
  0
LINE
  8
_0-1_
  6
DASHED1
 62
    3
 10
77.225938633182651
 20
11.307738016420677
 11
64.897139121915075
 21
11.307738016420679
  0
LINE
  8
_0-1_
  6
DASHED1
 62
    3
 10
77.225938633182651
 20
7.3077380164206769
 11
65.142137120242836
 21
7.3077380164206795
  0
LINE
  8
_0-1_
  6
DASHED1
 62
    5
 10
77.575938633182645
 20
7.6577380164206774
 11
65.142137120242836
 21
7.6577380164206801
  0
LINE
  8
_0-1_
  6
DASHED1
 62
    5
 10
77.575938633182645
 20
10.957738016420677
 11
65.137291399467145
 21
10.957738016420679
  0
LINE
  8
_0-1_
  6
CONTINUOUS
 62
    7
 10
64.897139121915075
 20
11.307738016420679
 11
63.725938633182928
 21
11.307738016420679
  0
LINE
  8
_0-1_
  6
CONTINUOUS
 62
    7
 10
65.142137120242836
 20
7.3077380164206795
 11
63.725938633182928
 21
7.3077380164206795
  0
LINE
  8
_0-1_
  6
CONTINUOUS
 62
    6
 10
65.137291399467145
 20
10.957738016420679
 11
63.725938633182928
 21
10.957738016420679
  0
LINE
  8
_0-1_
  6
CONTINUOUS
 62
    6
 10
65.142137120242836
 20
7.6577380164206801
 11
63.725938633182928
 21
7.6577380164206801
  0
LINE
  8
_0-1_
  6
CONTINUOUS
 62
    7
 10
64.156258506933881
 20
12.30773801649466
 11
63.725938633182864
 21
12.307738016498641
  0
LINE
  8
_0-1_
  6
CONTINUOUS
 62
    7
 10
62.435949769114238
 20
12.307738016510575
 11
49.642137120451224
 21
12.307738016628925
  0
LINE
  8
_0-1_
  6
CONTINUOUS
 62
    6
 10
63.7259386331828
 20
11.807738016499433
 11
64.467371206755359
 21
11.807738016492614
  0
LINE
  8
_0-1_
  6
CONTINUOUS
 62
    6
 10
49.142137120238857
 20
11.807738016633586
 11
62.139499455721939
 21
11.807738016514026
  0
LINE
  8
_0-1_
  6
CONTINUOUS
 62
    6
 10
49.142137120247043
 20
6.8077380166335857
 11
62.139499455624488
 21
6.8077380165138974
  0
LINE
  8
_0-1_
  6
CONTINUOUS
 62
    6
 10
63.72593863318216
 20
6.8077380164992887
 11
65.14213712024295
 21
6.8077380164862475
  0
LINE
  8
_0-1_
  6
CONTINUOUS
 62
    7
 10
62.435949768993979
 20
6.3077380165107826
 11
49.64213712025159
 21
6.3077380166289245
  0
LINE
  8
_0-1_
  6
CONTINUOUS
 62
    7
 10
65.14213712024295
 20
6.3077380164857928
 11
63.725938633182096
 21
6.3077380164988703
  0
LINE
  8
_0-1_
  6
DASHED1
 62
    3
 10
63.725938633182864
 20
12.307738016498641
 11
62.435949769114238
 21
12.307738016510575
  0
LINE
  8
_0-1_
  6
DASHED1
 62
    3
 10
63.725938633182096
 20
6.3077380164988703
 11
62.435949768993979
 21
6.3077380165107826
  0
LINE
  8
_0-1_
  6
DASHED1
 62
    5
 10
62.139499455721939
 20
11.807738016514026
 11
63.7259386331828
 21
11.807738016499433
  0
LINE
  8
_0-1_
  6
DASHED1
 62
    5
 10
62.139499455624488
 20
6.8077380165138974
 11
63.72593863318216
 21
6.8077380164992887
  0
ENDBLK
  0
ENDSEC
  0
SECTION
  2
ENTITIES
  0
LINE
  8
ADD_LINE
  6
DOT
 62
    9
 10
269.33692519729209
 20
25
 11
269.33692519729209
 21
12.5
  0
LINE
  8
ADD_LINE
  6
DOT
 62
    9
 10
289.33692519729209
 20
25
 11
289.33692519729209
 21
12.5
  0
LINE
  8
ADD_LINE
  6
DOT
 62
    9
 10
410.25538779593808
 20
25
 11
410.25538779593808
 21
12.5
  0
LINE
  8
ADD_LINE
  6
DOT
 62
    9
 10
30.270532795938095
 20
25
 11
30.270532795938095
 21
12.5
  0
TEXT
  8
_f-a__
 62
    7
 10
144.80372899661506
 20
25
 40
3
 41
0.8333333333333333
 50
0
  1
名　　称
  0
TEXT
  8
_f-a__
 62
    7
 10
274.33692519729209
 20
25
 40
3
 41
0.8333333333333333
 50
0
  1
縮　　尺
  0
TEXT
  8
_f-a__
 62
    7
 10
344.79615649661508
 20
25
 40
3
 41
0.8333333333333333
 50
0
  1
品　　番
  0
LINE
  8
ADD_LINE
  6
DOT
 62
    9
 10
30.270532795938095
 20
25
 11
410.25538779593808
 21
25
  0
LINE
  8
ADD_LINE
  6
DOT
 62
    9
 10
30.270532795938095
 20
12.5
 11
410.25538779593808
 21
12.5
  0
POINT
  8
_0-9__
 62
    4
 10
94.485086342229238
 20
218.79277865001501
  0
POINT
  8
_0-9__
 62
    4
 10
114.48508634232934
 20
218.79277865001501
  0
LINE
  8
_0-9__
  6
CONTINUOUS
 62
    4
 10
94.485086342229238
 20
219.79277865001501
 11
94.485086342229238
 21
206.79277865001501
  0
LINE
  8
_0-9__
  6
CONTINUOUS
 62
    4
 10
114.48508634232934
 20
219.79277865001501
 11
114.48508634232934
 21
202.29277864992633
  0
LINE
  8
_0-9__
  6
CONTINUOUS
 62
    4
 10
94.485086342229238
 20
218.79277865001501
 11
114.48508634232934
 21
218.79277865001501
  0
TEXT
  8
_0-9__
 62
    3
 10
102.36008634227929
 20
219.29277865001501
 40
5
 41
0.8
 50
0
  1
20
  0
POINT
  8
_0-9__
 62
    4
 10
274.48508634222918
 20
155.29975559968179
  0
POINT
  8
_0-9__
 62
    4
 10
284.48508634222918
 20
155.29975559968179
  0
LINE
  8
_0-9__
  6
CONTINUOUS
 62
    4
 10
274.48508634222918
 20
154.29975559968179
 11
274.48508634222918
 21
184.49277864992177
  0
LINE
  8
_0-9__
  6
CONTINUOUS
 62
    4
 10
274.48508634222918
 20
155.29975559968179
 11
284.48508634222918
 21
155.29975559968179
  0
TEXT
  8
_0-9__
 62
    3
 10
277.36008634222918
 20
155.79975559968179
 40
5
 41
0.8
 50
0
  1
10
  0
TEXT
  8
_0-a__
 62
    3
 10
276.08692519729209
 20
16.25
 40
5
 41
0.8
 50
0
  1
1/1
  0
INSERT
  2
-000-NT-12
  8
_0-b__
 10
189.48508634222921
 20
82.292778649921502
 41
1
 42
1
 50
0
  0
LINE
  8
_0-9__
  6
CONTINUOUS
 62
    4
 10
284.48508634222918
 20
77.292778649921502
 11
284.48508634222918
 21
84.292778649921502
  0
POINT
  8
_0-9__
 62
    4
 10
94.485086342229238
 20
70.292778649921502
  0
POINT
  8
_0-9__
 62
    4
 10
284.48508634222918
 20
70.292778649921502
  0
LINE
  8
_0-9__
  6
CONTINUOUS
 62
    4
 10
284.48508634222918
 20
69.292778649921502
 11
284.48508634222918
 21
77.292778649921502
  0
LINE
  8
_0-9__
  6
CONTINUOUS
 62
    4
 10
94.485086342229238
 20
70.292778649921502
 11
284.48508634222918
 21
70.292778649921502
  0
TEXT
  8
_0-9__
 62
    3
 10
186.23508634222921
 20
70.792778649921502
 40
5
 41
0.8
 50
0
  1
190
  0
POINT
  8
_0-9__
 62
    4
 10
284.48508634222918
 20
70.292778649921502
  0
LINE
  8
_0-9__
  6
CONTINUOUS
 62
    4
 10
94.485086342229238
 20
69.292778649921502
 11
94.485086342229238
 21
81.592778649921499
  0
TEXT
  8
_0-a__
 62
    3
 10
343.17115649661508
 20
16.25
 40
5
 41
0.8
 50
0
  1
B-NT12
  0
LINE
  8
_0-9__
  6
CONTINUOUS
 62
    4
 10
89.485086342229238
 20
206.79277865001501
 11
94.485086342237807
 21
206.79277865001501
  0
POINT
  8
_0-9__
 62
    4
 10
82.485086342229238
 20
82.292778649921502
  0
POINT
  8
_0-9__
 62
    4
 10
82.485086342229238
 20
206.79277865001501
  0
LINE
  8
_0-9__
  6
CONTINUOUS
 62
    4
 10
81.485086342229238
 20
206.79277865001501
 11
89.485086342229238
 21
206.79277865001501
  0
LINE
  8
_0-9__
  6
CONTINUOUS
 62
    4
 10
82.485086342229238
 20
82.292778649921502
 11
82.485086342229238
 21
206.79277865001501
  0
TEXT
  8
_0-9__
 62
    3
 10
81.985086342229238
 20
139.04277864996826
 40
5
 41
0.8
 50
90
  1
124.5
  0
LINE
  8
_0-9__
  6
CONTINUOUS
 62
    4
 10
81.485086342229238
 20
82.292778649921502
 11
93.785086342229235
 21
82.292778649921502
  0
POINT
  8
_0-9__
 62
    4
 10
94.485086342229238
 20
129.76444020214956
  0
POINT
  8
_0-9__
 62
    4
 10
96.485086342229238
 20
129.76444020214956
  0
LINE
  8
_0-9__
  6
CONTINUOUS
 62
    4
 10
94.485086342229238
 20
129.76444020214956
 11
96.485086342229238
 21
129.76444020214956
  0
TEXT
  8
_0-9__
 62
    3
 10
90.305783251652755
 20
130.26444020214956
 40
5
 41
0.8
 50
0
  1
2
  0
TEXT
  8
_0-a__
 62
    3
 10
123.05372897562847
 20
16.25
 40
5
 41
0.8
 50
0
  1
アルミ軒とい本体Ｂタイプ
  0
INSERT
  2
-001-TK-A_1__1__1__1__1__1_
  8
_0-b__
 10
189.61721317534932
 20
172.11643718011609
 41
1
 42
1
 50
0
  0
POINT
  8
_0-9__
 62
    4
 10
296.48508634198708
 20
82.292778649999036
  0
POINT
  8
_0-9__
 62
    4
 10
296.48508634198708
 20
187.29277864999904
  0
LINE
  8
_0-9__
  6
CONTINUOUS
 62
    4
 10
296.48508634198708
 20
82.292778649999036
 11
296.48508634198708
 21
187.29277864999904
  0
TEXT
  8
_0-9__
 62
    3
 10
295.98508634198708
 20
131.54277864999904
 40
5
 41
0.8
 50
90
  1
105
  0
POINT
  8
_0-9__
 62
    4
 10
340.4850863422302
 20
153.79277866042696
  0
POINT
  8
_0-9__
 62
    4
 10
340.4850863422302
 20
161.7927786604269
  0
LINE
  8
_0-9__
  6
CONTINUOUS
 62
    4
 10
341.4850863422302
 20
153.79277866042696
 11
329.18508634223025
 21
153.79277866042696
  0
LINE
  8
_0-9__
  6
CONTINUOUS
 62
    4
 10
341.4850863422302
 20
161.7927786604269
 11
333.2544898696346
 21
161.7927786604269
  0
LINE
  8
_0-9__
  6
CONTINUOUS
 62
    4
 10
340.4850863422302
 20
153.79277866042696
 11
340.4850863422302
 21
161.7927786604269
  0
TEXT
  8
_0-9__
 62
    3
 10
339.9850863422302
 20
156.79277866042693
 40
5
 41
0.8
 50
90
  1
8
  0
POINT
  8
_0-9__
 62
    4
 10
340.4850863422302
 20
177.7927786604269
  0
LINE
  8
_0-9__
  6
CONTINUOUS
 62
    4
 10
341.4850863422302
 20
177.7927786604269
 11
333.2544898696346
 21
177.7927786604269
  0
LINE
  8
_0-9__
  6
CONTINUOUS
 62
    4
 10
340.4850863422302
 20
161.7927786604269
 11
340.4850863422302
 21
177.7927786604269
  0
TEXT
  8
_0-9__
 62
    3
 10
339.9850863422302
 20
167.6677786604269
 40
5
 41
0.8
 50
90
  1
16
  0
POINT
  8
_0-9__
 62
    4
 10
348.4850863422302
 20
82.292778649999036
  0
POINT
  8
_0-9__
 62
    4
 10
348.4850863422302
 20
153.79277866042696
  0
LINE
  8
_0-9__
  6
CONTINUOUS
 62
    4
 10
349.4850863422302
 20
82.292778649999036
 11
297.48508634198708
 21
82.292778649999036
  0
LINE
  8
_0-9__
  6
CONTINUOUS
 62
    4
 10
349.4850863422302
 20
153.79277866042696
 11
341.4850863422302
 21
153.79277866042696
  0
LINE
  8
_0-9__
  6
CONTINUOUS
 62
    4
 10
348.4850863422302
 20
82.292778649999036
 11
348.4850863422302
 21
153.79277866042696
  0
TEXT
  8
_0-9__
 62
    3
 10
347.9850863422302
 20
113.667778655213
 40
5
 41
0.8
 50
90
  1
71.5
  0
POINT
  8
_0-9__
 62
    4
 10
348.4850863422302
 20
191.79277866042696
  0
LINE
  8
_0-9__
  6
CONTINUOUS
 62
    4
 10
349.4850863422302
 20
191.79277866042696
 11
328.4850863422302
 21
191.79277866042696
  0
LINE
  8
_0-9__
  6
CONTINUOUS
 62
    4
 10
348.4850863422302
 20
153.79277866042696
 11
348.4850863422302
 21
191.79277866042696
  0
TEXT
  8
_0-9__
 62
    3
 10
347.9850863422302
 20
170.66777866042696
 40
5
 41
0.8
 50
90
  1
38
  0
POINT
  8
_0-9__
 62
    4
 10
348.4850863422302
 20
207.7927786604269
  0
LINE
  8
_0-9__
  6
CONTINUOUS
 62
    4
 10
349.4850863422302
 20
207.7927786604269
 11
325.18508634223019
 21
207.7927786604269
  0
LINE
  8
_0-9__
  6
CONTINUOUS
 62
    4
 10
348.4850863422302
 20
191.79277866042696
 11
348.4850863422302
 21
207.7927786604269
  0
TEXT
  8
_0-9__
 62
    3
 10
347.9850863422302
 20
197.66777866042693
 40
5
 41
0.8
 50
90
  1
16
  0
POINT
  8
_0-9__
 62
    4
 10
340.4850863422302
 20
177.7927786604269
  0
POINT
  8
_0-9__
 62
    4
 10
340.4850863422302
 20
191.79277866042696
  0
LINE
  8
_0-9__
  6
CONTINUOUS
 62
    4
 10
340.4850863422302
 20
177.7927786604269
 11
340.4850863422302
 21
191.79277866042696
  0
TEXT
  8
_0-9__
 62
    3
 10
339.9850863422302
 20
182.66777866042693
 40
5
 41
0.8
 50
90
  1
14
  0
LINE
  8
_0-9__
  6
CONTINUOUS
 62
    4
 10
297.48508634198708
 20
187.29277864999904
 11
284.48508634198703
 21
187.29277864999904
  0
LINE
  8
_0-9__
  6
CONTINUOUS
 62
    4
 10
297.48508634198708
 20
82.292778649999036
 11
282.48508634198708
 21
82.292778649999036
  0
INSERT
  2
-002-OTK-NT12_1_
  8
_0-1_
 10
249.3429492212874
 20
182.98504066464076
 41
1
 42
1
 50
0
  0
ENDSEC
  0
EOF
