  0
SECTION
  2
HEADER
  9
$ACADVER
  1
AC1009
  9
$INSBASE
 10
0
 20
0
 30
0
  9
$EXTMIN
 10
0
 20
0
  9
$EXTMAX
 10
840
 20
594
  9
$LIMMIN
 10
0
 20
0
  9
$LIMMAX
 10
840
 20
594
  9
$LTSCALE
 40
2
  0
ENDSEC
  0
SECTION
  2
TABLES
  0
TABLE
  2
LTYPE
 70
     9
  0
LTYPE
  2
CONTINUOUS
 70
    64
  3
実線
 72
    65
 73
     0
 40
0.0
  0
LTYPE
  2
DASHED1
 70
    64
  3
--  --  --  --  --  --  --  --  
 72
    65
 73
     2
 40
2.5
 49
1.25
 49
-1.25
  0
LTYPE
  2
DASHED2
 70
    64
  3
----    ----    ----    ----    
 72
    65
 73
     2
 40
5.0
 49
2.5
 49
-2.5
  0
LTYPE
  2
DASHED3
 70
    64
  3
------  ------  ------  ------  
 72
    65
 73
     2
 40
5.0
 49
3.75
 49
-1.25
  0
LTYPE
  2
CENTER1
 70
    64
  3
----- - ----- - ----- - ----- - 
 72
    65
 73
     4
 40
10.0
 49
6.25
 49
-1.25
 49
1.25
 49
-1.25
  0
LTYPE
  2
CENTER2
 70
    64
  3
----------  --  ----------  --  
 72
    65
 73
     4
 40
20.0
 49
12.5
 49
-2.5
 49
2.5
 49
-2.5
  0
LTYPE
  2
PHANTOM1
 70
    64
  3
--- - - --- - - --- - - --- - - 
 72
    65
 73
     6
 40
10.0
 49
3.25
 49
-1.25
 49
1.25
 49
-1.25
 49
1.25
 49
-1.25
  0
LTYPE
  2
PHANTOM2
 70
    64
  3
--------  -  -  --------  -  -  
 72
    65
 73
     6
 40
20.0
 49
10.0
 49
-2.5
 49
1.25
 49
-2.5
 49
1.25
 49
-2.5
  0
LTYPE
  2
DOT
 70
    64
  3
-   -   -   -   -   -   -   -   
 72
    65
 73
     2
 40
2.5
 49
0.625
 49
-1.875
  0
LTYPE
  2
DUMMY
 70
    64
  3
ダミー
 72
    65
 73
     0
 40
0.0
  0
LTYPE
  2
RAND1
 70
    64
  3
ランダム線1
 72
    65
 73
     4
 40
10.0
 49
1.0
 49
-2.0
 49
3.0
 49
-4.0
  0
LTYPE
  2
RAND2
 70
    64
  3
ランダム線2
 72
    65
 73
     4
 40
14.0
 49
2.0
 49
-3.0
 49
4.0
 49
-5.0
  0
LTYPE
  2
RAND3
 70
    64
  3
ランダム線3
 72
    65
 73
     4
 40
18.0
 49
3.0
 49
-4.0
 49
5.0
 49
-6.0
  0
LTYPE
  2
RAND4
 70
    64
  3
ランダム線4
 72
    65
 73
     4
 40
22.0
 49
4.0
 49
-5.0
 49
6.0
 49
-7.0
  0
LTYPE
  2
RAND5
 70
    64
  3
ランダム線5
 72
    65
 73
     4
 40
26.0
 49
5.0
 49
-6.0
 49
7.0
 49
-8.0
  0
LTYPE
  2
LONG1
 70
    64
  3
----------  --  ----------  --  
 72
    65
 73
     4
 40
40.0
 49
32.5
 49
-2.5
 49
2.5
 49
-2.5
  0
LTYPE
  2
LONG2
 70
    64
  3
--------  -  -  --------  -  -  
 72
    65
 73
     6
 40
40.0
 49
30.0
 49
-2.5
 49
1.25
 49
-2.5
 49
1.25
 49
-2.5
  0
LTYPE
  2
LONG3
 70
    64
  3
+++++++++++++++..+++++++++++++++
 72
    65
 73
     2
 40
40.0
 49
37.5
 49
-2.5
  0
LTYPE
  2
LONG4
 70
    64
  3
+++++++++++++++..+++++++++++++++
 72
    65
 73
     2
 40
80.0
 49
75.0
 49
-5.0
  0
LTYPE
  2
LONG5
 70
    64
  3
----------  --  ----------  --  
 72
    65
 73
     4
 40
60.0
 49
37.5
 49
-7.5
 49
7.5
 49
-7.5
  0
LTYPE
  2
dashed
 70
   64
  3
-------   -------------   ------
 72
   65
 73
    2
 40
7.5
 49
6
 49
-1.5
  0
LTYPE
  2
dashed_spaced
 70
   64
  3
----        --------        ----
 72
   65
 73
    2
 40
12
 49
6
 49
-6
  0
LTYPE
  2
long_dashed_dotted
 70
   64
  3
------------- --- --------------
 72
   65
 73
    4
 40
15.25
 49
12
 49
-1.5
 49
0.25
 49
-1.5
  0
LTYPE
  2
long_dashed_double-dotted
 70
   64
  3
----------- --- --- ------------
 72
   65
 73
    6
 40
17
 49
12
 49
-1.5
 49
0.25
 49
-1.5
 49
0.25
 49
-1.5
  0
LTYPE
  2
long_dashed_triplicate-dotted
 70
   64
  3
--------- --- --- --- ----------
 72
   65
 73
    8
 40
18.75
 49
12
 49
-1.5
 49
0.25
 49
-1.5
 49
0.25
 49
-1.5
 49
0.25
 49
-1.5
  0
LTYPE
  2
dotted
 70
   64
  3
   -       -       -       -    
 72
   65
 73
    2
 40
1.75
 49
0.25
 49
-1.5
  0
LTYPE
  2
chain
 70
   64
  3
-------------- -- --------------
 72
   65
 73
    4
 40
18.5
 49
12
 49
-1.5
 49
3.5
 49
-1.5
  0
LTYPE
  2
chain_double_dash
 70
   64
  3
------------ -- -- -------------
 72
   65
 73
    6
 40
23.5
 49
12
 49
-1.5
 49
3.5
 49
-1.5
 49
3.5
 49
-1.5
  0
LTYPE
  2
dashed_dotted
 70
   64
  3
-----------     -     ----------
 72
   65
 73
    4
 40
9.25
 49
6
 49
-1.5
 49
0.25
 49
-1.5
  0
LTYPE
  2
double-dashed_dotted
 70
   64
  3
------   -----------   -   -----
 72
   65
 73
    6
 40
16.75
 49
6
 49
-1.5
 49
6
 49
-1.5
 49
0.25
 49
-1.5
  0
LTYPE
  2
dashed_double-dotted
 70
   64
  3
---------    -    -    ---------
 72
   65
 73
    6
 40
11
 49
6
 49
-1.5
 49
0.25
 49
-1.5
 49
0.25
 49
-1.5
  0
LTYPE
  2
double-dashed_double-dotted
 70
   64
  3
-----   ---------   -   -   ----
 72
   65
 73
    8
 40
18.5
 49
6
 49
-1.5
 49
6
 49
-1.5
 49
0.25
 49
-1.5
 49
0.25
 49
-1.5
  0
LTYPE
  2
dashed_triplicate-dotted
 70
   64
  3
-------    -    -    -    ------
 72
   65
 73
    8
 40
12.75
 49
6
 49
-1.5
 49
0.25
 49
-1.5
 49
0.25
 49
-1.5
 49
0.25
 49
-1.5
  0
LTYPE
  2
double-dashed_triplicate-dotted
 70
   64
  3
-----  ---------  -  -  -  -----
 72
   65
 73
   10
 40
20.25
 49
6
 49
-1.5
 49
6
 49
-1.5
 49
0.25
 49
-1.5
 49
0.25
 49
-1.5
 49
0.25
 49
-1.5
  0
LTYPE
  2
undefined
 70
   64
  3
--------------------------------
 72
   65
 73
    0
 40
0
  0
ENDTAB
  0
TABLE
  2
STYLE
  5
3
100
AcDbSymbolTable
 70
     1
  0
STYLE
  5
10
100
AcDbSymbolTableRecord
100
AcDbTextStyleTableRecord
  2
STANDARD
 70
     0
 40
0.0
 41
1.0
 50
0.0
 71
     0
 42
0.2
  3
txt
  4
bigfont.shx
  0
STYLE
  5
26
100
AcDbSymbolTableRecord
100
AcDbTextStyleTableRecord
  2
TATEGAKI
 70
    68
 40
0.0
 41
1.0
 50
0.0
 71
     0
 42
1.0
  3
txt
  4
bigfont.shx
  0
ENDTAB
  0
TABLE
  2
LAYER
 70
   10
  0
LAYER
  2
_0-1_
 70
   64
 62
    7
  6
CONTINUOUS
  0
LAYER
  2
_0-2__
 70
   64
 62
    7
  6
CONTINUOUS
  0
LAYER
  2
_0-3__
 70
   64
 62
    7
  6
CONTINUOUS
  0
LAYER
  2
_0-7__
 70
   64
 62
    7
  6
CONTINUOUS
  0
LAYER
  2
_0-9__
 70
   64
 62
    7
  6
CONTINUOUS
  0
LAYER
  2
_0-a__
 70
   64
 62
    7
  6
CONTINUOUS
  0
LAYER
  2
_0-b__
 70
   64
 62
    7
  6
CONTINUOUS
  0
LAYER
  2
_f-0_
 70
   64
 62
    7
  6
CONTINUOUS
  0
LAYER
  2
_f-a__
 70
   64
 62
    7
  6
CONTINUOUS
  0
LAYER
  2
ADD_LINE
 70
   64
 62
    7
  6
CONTINUOUS
  0
ENDTAB
  0
ENDSEC
  0
SECTION
  2
BLOCKS
  0
BLOCK
  2
-000-JEJ-12N
 70
   64
 10
0
 20
0
 30
0
  0
LINE
  8
_0-1_
  6
CONTINUOUS
 62
    7
 10
168.12891883573934
 20
64.694748641372456
 11
190.12891883573934
 21
64.694748641372456
  0
ARC
  8
_0-1_
  6
CONTINUOUS
 62
    7
 10
183.12891883573934
 20
-140.30525135862754
 40
7
 50
270
 51
0
  0
LINE
  8
_0-1_
  6
CONTINUOUS
 62
    7
 10
190.12891883573934
 20
-140.30525135862754
 11
190.12891883573934
 21
64.694748641372456
  0
LINE
  8
_0-1_
  6
CONTINUOUS
 62
    7
 10
-190.65883627095235
 20
28.005047942402236
 11
-73.483764887819305
 21
-144.24249542332078
  0
ARC
  8
_0-1_
  6
CONTINUOUS
 62
    7
 10
-67.696009781127501
 20
-140.30525135862754
 40
7
 50
214.22633266265234
 51
270
  0
LINE
  8
_0-1_
  6
CONTINUOUS
 62
    7
 10
-67.696009781127501
 20
-147.30525135862754
 11
183.12891883573934
 21
-147.30525135862754
  0
ARC
  8
_0-1_
  6
CONTINUOUS
 62
    7
 10
-184.87108116426054
 20
31.942292007095695
 40
7
 50
180
 51
214.22633266265228
  0
LINE
  8
_0-1_
  6
CONTINUOUS
 62
    7
 10
-191.87108116426054
 20
103.69474864157937
 11
-191.87108116426054
 21
31.942292007095695
  0
LINE
  8
_0-1_
  6
CONTINUOUS
 62
    7
 10
-191.87108116426054
 20
103.69474864157937
 11
-172.87108116427399
 21
103.69474864145269
  0
ARC
  8
_0-1_
  6
CONTINUOUS
 62
    7
 10
-172.87108116426066
 20
105.6947486414528
 40
2.0000000000001137
 50
269.99999999961813
 51
89.999999999618126
  0
ARC
  8
_0-1_
  6
CONTINUOUS
 62
    7
 10
-193.87108116426066
 20
105.69474864159271
 40
2
 50
89.99999999961895
 51
180
  0
ARC
  8
_0-1_
  6
CONTINUOUS
 62
    7
 10
166.12891883573934
 20
66.694748641372456
 40
2
 50
90
 51
180
  0
LINE
  8
_0-1_
  6
CONTINUOUS
 62
    7
 10
192.12891883573934
 20
68.694748641372456
 11
166.12891883573934
 21
68.694748641372456
  0
ARC
  8
_0-1_
  6
CONTINUOUS
 62
    7
 10
192.12891883573934
 20
66.694748641372456
 40
2
 50
0
 51
90.000000000000014
  0
LINE
  8
_0-1_
  6
CONTINUOUS
 62
    7
 10
194.12891883573934
 20
-140.30525135862754
 11
194.12891883573934
 21
66.694748641372456
  0
ARC
  8
_0-1_
  6
CONTINUOUS
 62
    7
 10
183.12891883573934
 20
-140.30525135862754
 40
11
 50
270
 51
0
  0
LINE
  8
_0-1_
  6
CONTINUOUS
 62
    7
 10
-67.696009781127444
 20
-151.30525135862754
 11
183.12891883573934
 21
-151.30525135862754
  0
ARC
  8
_0-1_
  6
CONTINUOUS
 62
    7
 10
-67.696009781127444
 20
-140.30525135862754
 40
11
 50
214.22633266265234
 51
270
  0
LINE
  8
_0-1_
  6
CONTINUOUS
 62
    7
 10
-193.96612490334778
 20
25.755194191148938
 11
-76.791053520214547
 21
-146.49234917457423
  0
LINE
  8
_0-1_
  6
CONTINUOUS
 62
    7
 10
-195.87108116426066
 20
31.942292007095638
 11
-195.87108116426066
 21
105.69474864159271
  0
ARC
  8
_0-1_
  6
CONTINUOUS
 62
    7
 10
-184.87108116426066
 20
31.942292007095638
 40
11
 50
180
 51
214.22633266265234
  0
LINE
  8
_0-1_
  6
CONTINUOUS
 62
    7
 10
168.12891883573934
 20
64.694748641372456
 11
168.12891883573934
 21
63.694748641372399
  0
ARC
  8
_0-1_
  6
CONTINUOUS
 62
    7
 10
166.12891883573934
 20
63.694748641372399
 40
2
 50
180
 51
0
  0
LINE
  8
_0-1_
  6
CONTINUOUS
 62
    7
 10
164.12891883573934
 20
66.694748641372456
 11
164.12891883573934
 21
63.694748641372399
  0
LINE
  8
_0-1_
  6
CONTINUOUS
 62
    7
 10
-183.07108116428117
 20
107.69474864151024
 11
-182.47108116428092
 21
107.09474864150624
  0
LINE
  8
_0-1_
  6
CONTINUOUS
 62
    7
 10
-181.87108116428874
 20
107.69474864150229
 11
-182.47108116428092
 21
107.09474864150624
  0
LINE
  8
_0-1_
  6
CONTINUOUS
 62
    7
 10
-181.87108116428874
 20
107.69474864150229
 11
-172.87108116424733
 21
107.69474864145292
  0
LINE
  8
_0-1_
  6
CONTINUOUS
 62
    7
 10
-193.87108116424736
 20
107.69474864159271
 11
-183.07108116428117
 21
107.69474864151024
  0
ENDBLK
  0
BLOCK
  2
-001-EJ_COVER
 70
   64
 10
0
 20
0
 30
0
  0
LINE
  8
_0-9__
  6
CONTINUOUS
 62
    7
 10
0
 20
0
 11
-20
 21
0
  0
LINE
  8
_0-9__
  6
CONTINUOUS
 62
    7
 10
-20
 20
3.6000000000997261
 11
-20
 21
0
  0
LINE
  8
_0-9__
  6
CONTINUOUS
 62
    7
 10
-10.599999999995248
 20
3.6000000000531145
 11
-20
 21
3.6000000000997261
  0
LINE
  8
_0-9__
  6
CONTINUOUS
 62
    7
 10
-10.599999999995248
 20
3.6000000000531145
 11
-9.999999999996021
 21
3.0000000000500222
  0
LINE
  8
_0-9__
  6
CONTINUOUS
 62
    7
 10
-9.4000000000028194
 20
3.6000000000472028
 11
-9.999999999996021
 21
3.0000000000500222
  0
LINE
  8
_0-9__
  6
CONTINUOUS
 62
    7
 10
1.6000000000100272
 20
3.5999999999926331
 11
-9.4000000000028194
 21
3.6000000000472028
  0
ARC
  8
_0-9__
  6
CONTINUOUS
 62
    7
 10
333.40000000019961
 20
-58.000002493862439
 40
2
 50
270
 51
0
  0
ARC
  8
_0-9__
  6
CONTINUOUS
 62
    7
 10
1.6000000000000227
 20
1.5999999999926331
 40
2
 50
0
 51
89.99999999971574
  0
LINE
  8
_0-9__
  6
CONTINUOUS
 62
    7
 10
321.99999999999989
 20
-35.000000274317472
 11
321.99999999999989
 21
-38.600000274317381
  0
LINE
  8
_0-9__
  6
CONTINUOUS
 62
    7
 10
331.80000000019959
 20
-56.40000249386253
 11
331.80000000019959
 21
-38.600000274317381
  0
LINE
  8
_0-9__
  6
CONTINUOUS
 62
    7
 10
331.80000000019959
 20
-38.600000274317381
 11
321.99999999999989
 21
-38.600000274317381
  0
LINE
  8
_0-9__
  6
CONTINUOUS
 62
    7
 10
335.40000000019961
 20
-37.000000274317472
 11
335.40000000019961
 21
-58.000002493862439
  0
LINE
  8
_0-9__
  6
CONTINUOUS
 62
    7
 10
333.40000000019961
 20
-35.000000274317472
 11
321.99999999999989
 21
-35.000000274317472
  0
ARC
  8
_0-9__
  6
CONTINUOUS
 62
    7
 10
333.40000000019961
 20
-37.000000274317472
 40
2
 50
0
 51
90
  0
LINE
  8
_0-9__
  6
CONTINUOUS
 62
    7
 10
0
 20
-44.000002493862439
 11
0
 21
0
  0
LINE
  8
_0-9__
  6
CONTINUOUS
 62
    7
 10
16
 20
-60.000002493862439
 11
333.40000000019961
 21
-60.000002493862439
  0
ARC
  8
_0-9__
  6
CONTINUOUS
 62
    7
 10
16
 20
-44.000002493862439
 40
16
 50
180
 51
270
  0
LINE
  8
_0-9__
  6
CONTINUOUS
 62
    7
 10
16
 20
-56.40000249386253
 11
331.80000000019959
 21
-56.40000249386253
  0
ARC
  8
_0-9__
  6
CONTINUOUS
 62
    7
 10
16
 20
-44.000002493862439
 40
12.4
 50
180
 51
270
  0
LINE
  8
_0-9__
  6
CONTINUOUS
 62
    7
 10
3.6000000000000227
 20
1.5999999999926331
 11
3.6000000000000227
 21
-44.000002493862439
  0
ENDBLK
  0
BLOCK
  2
-002-M4TRUSHEAD_2_
 70
   64
 10
0
 20
0
 30
0
  0
LINE
  8
_0-1_
  6
CONTINUOUS
 62
    7
 10
-1.8980000000000246
 20
0.7639999999999957
 11
-3.4560000000000173
 21
0.7639999999999957
  0
LINE
  8
_0-1_
  6
CONTINUOUS
 62
    7
 10
-1.8980000000000246
 20
-0.7639999999999957
 11
-3.4560000000000173
 21
-0.7639999999999957
  0
LINE
  8
_0-1_
  6
CONTINUOUS
 62
    7
 10
-0.76400000000001
 20
-1.8979999999999961
 11
-0.76400000000001
 21
-3.4560000000000031
  0
LINE
  8
_0-1_
  6
CONTINUOUS
 62
    7
 10
0.76400000000001
 20
-1.8979999999999961
 11
0.76400000000001
 21
-3.4560000000000031
  0
LINE
  8
_0-1_
  6
CONTINUOUS
 62
    7
 10
1.8980000000000246
 20
-0.7639999999999957
 11
3.4560000000000173
 21
-0.7639999999999957
  0
LINE
  8
_0-1_
  6
CONTINUOUS
 62
    7
 10
1.8980000000000246
 20
0.7639999999999957
 11
3.4560000000000173
 21
0.7639999999999957
  0
LINE
  8
_0-1_
  6
CONTINUOUS
 62
    7
 10
0.76400000000001
 20
1.8979999999999961
 11
0.76400000000001
 21
3.4560000000000031
  0
LINE
  8
_0-1_
  6
CONTINUOUS
 62
    7
 10
-0.76400000000001
 20
1.8979999999999961
 11
-0.76400000000001
 21
3.4560000000000031
  0
ARC
  8
_0-1_
  6
CONTINUOUS
 62
    7
 10
-1.8980000000000246
 20
1.8979999999999961
 40
1.1320000000000001
 50
270
 51
0
  0
ARC
  8
_0-1_
  6
CONTINUOUS
 62
    7
 10
1.8980000000000246
 20
1.8979999999999961
 40
1.1320000000000001
 50
180
 51
270
  0
ARC
  8
_0-1_
  6
CONTINUOUS
 62
    7
 10
1.8980000000000246
 20
-1.8979999999999961
 40
1.1320000000000001
 50
90
 51
180
  0
ARC
  8
_0-1_
  6
CONTINUOUS
 62
    7
 10
-1.8980000000000246
 20
-1.8979999999999961
 40
1.1320000000000001
 50
0
 51
90
  0
ARC
  8
_0-1_
  6
CONTINUOUS
 62
    7
 10
0
 20
0
 40
3.54
 50
347.52572631835937
 51
12.474273681640634
  0
ARC
  8
_0-1_
  6
CONTINUOUS
 62
    7
 10
0
 20
0
 40
3.54
 50
77.52581787109375
 51
102.47418212890625
  0
ARC
  8
_0-1_
  6
CONTINUOUS
 62
    7
 10
0
 20
0
 40
3.54
 50
167.52572631835937
 51
192.47427368164065
  0
ARC
  8
_0-1_
  6
CONTINUOUS
 62
    7
 10
0
 20
0
 40
3.54
 50
257.52581787109375
 51
282.47418212890625
  0
CIRCLE
  8
_0-1_
  6
CONTINUOUS
 62
    7
 10
-0.0000000000000142
 20
0
 40
7
  0
ENDBLK
  0
BLOCK
  2
-003-NT-12N_1_
 70
   64
 10
0
 20
0
 30
0
  0
LINE
  8
_0-1_
  6
CONTINUOUS
 62
    2
 10
169.33051258216477
 20
84.832095194705744
 11
169.33051258216477
 21
84.232095194706289
  0
LINE
  8
_0-1_
  6
CONTINUOUS
 62
    2
 10
169.33051258216477
 20
84.832095194705744
 11
172.33051258216477
 21
87.832095194705744
  0
LINE
  8
_0-1_
  6
CONTINUOUS
 62
    2
 10
-150.66948741763488
 20
115.83209519471541
 11
-150.66948741763488
 21
103.83209519470574
  0
ARC
  8
_0-1_
  6
CONTINUOUS
 62
    2
 10
-152.66948741763488
 20
115.83209519471541
 40
2
 50
0
 51
89.999999999722803
  0
ARC
  8
_0-1_
  6
CONTINUOUS
 62
    2
 10
183.33051258216477
 20
-116.16790480529426
 40
6
 50
270
 51
0
  0
ARC
  8
_0-1_
  6
CONTINUOUS
 62
    2
 10
-67.494416034702056
 20
-116.16790480529426
 40
6
 50
214.22633266265234
 51
270
  0
LINE
  8
_0-1_
  6
CONTINUOUS
 62
    2
 10
-67.494416034702056
 20
-122.16790480529426
 11
183.33051258216477
 21
-122.16790480529426
  0
LINE
  8
_0-1_
  6
CONTINUOUS
 62
    2
 10
189.33051258216477
 20
85.832095194705744
 11
189.33051258216477
 21
-116.16790480529426
  0
LINE
  8
_0-1_
  6
CONTINUOUS
 62
    2
 10
187.33051258216477
 20
87.832095194705744
 11
172.33051258216477
 21
87.832095194705744
  0
ARC
  8
_0-1_
  6
CONTINUOUS
 62
    2
 10
187.33051258216477
 20
85.832095194705744
 40
2
 50
0
 51
90
  0
ARC
  8
_0-1_
  6
CONTINUOUS
 62
    2
 10
-188.66948741783509
 20
124.83209519489276
 40
2
 50
89.999999999617827
 51
179.99999999999994
  0
LINE
  8
_0-1_
  6
CONTINUOUS
 62
    2
 10
-152.66948741762522
 20
117.83209519471541
 11
-186.66948741735087
 21
117.83209519488184
  0
LINE
  8
_0-1_
  6
CONTINUOUS
 62
    2
 10
-186.66948741735087
 20
117.83209519488184
 11
-186.66948741735087
 21
122.83209519488213
  0
ARC
  8
_0-1_
  6
CONTINUOUS
 62
    2
 10
170.33051258216477
 20
84.232095194706289
 40
1
 50
180
 51
336.42182152177105
  0
LINE
  8
_0-1_
  6
CONTINUOUS
 62
    2
 10
185.33051258124942
 20
83.832095194705857
 11
171.24702772115575
 21
83.832095194705857
  0
LINE
  8
_0-1_
  6
CONTINUOUS
 62
    2
 10
-188.66948741782176
 20
126.83209519489276
 11
-174.66948741783509
 21
126.83209519477271
  0
LINE
  8
_0-1_
  6
CONTINUOUS
 62
    2
 10
-174.66948741783509
 20
126.83209519477271
 11
-174.66948741783509
 21
122.83209519477271
  0
LINE
  8
_0-1_
  6
CONTINUOUS
 62
    2
 10
-174.66948741783509
 20
122.83209519477271
 11
-186.66948741735087
 21
122.83209519488213
  0
LINE
  8
_0-1_
  6
CONTINUOUS
 62
    2
 10
-190.66948741783509
 20
124.83209519489276
 11
-190.66948741783509
 21
56.079638560429025
  0
ARC
  8
_0-1_
  6
CONTINUOUS
 62
    2
 10
-184.66948741783509
 20
56.079638560429025
 40
6
 50
180
 51
214.22633266265228
  0
LINE
  8
_0-1_
  6
CONTINUOUS
 62
    2
 10
-189.63042036642807
 20
52.704857933549
 11
-72.455348983295011
 21
-119.54268543217427
  0
LINE
  8
_0-1_
  6
CONTINUOUS
 62
    2
 10
-150.66948741763488
 20
103.83209519470574
 11
-152.6694874175416
 21
103.83209519470574
  0
ARC
  8
_0-1_
  6
CONTINUOUS
 62
    2
 10
161.73051258244914
 20
51.432092680042949
 40
6.4000000000000004
 50
43.432536557904712
 51
136.56746344209452
  0
LINE
  8
_0-1_
  6
CONTINUOUS
 62
    2
 10
185.33051258264913
 20
55.832092680052284
 11
185.33051258264913
 21
83.832095173905714
  0
ARC
  8
_0-1_
  6
DASHED1
 62
    2
 10
161.73051258244914
 20
51.432092680042949
 40
6.4000000000000004
 50
136.56746344209452
 51
180
  0
LINE
  8
_0-1_
  6
DASHED1
 62
    2
 10
155.33051258285832
 20
47.83209268005259
 11
155.33051258285832
 21
51.432092680042949
  0
ARC
  8
_0-1_
  6
DASHED1
 62
    2
 10
161.73051258285841
 20
47.83209268005259
 40
6.4000000000000004
 50
180
 51
223.73979529169787
  0
ARC
  8
_0-1_
  6
DASHED1
 62
    2
 10
158.11807701759108
 20
44.37517074204208
 40
1.3999999999999999
 50
223.73979529160025
 51
43.739795291697938
  0
ARC
  8
_0-1_
  6
DASHED1
 62
    2
 10
161.73051258285841
 20
47.83209268005259
 40
3.6000000000000001
 50
316.26020470829553
 51
223.73979529169787
  0
ARC
  8
_0-1_
  6
DASHED1
 62
    2
 10
165.34294814812574
 20
44.37517074204208
 40
1.3999999999999999
 50
136.26020470850409
 51
316.2602047081914
  0
ARC
  8
_0-1_
  6
DASHED1
 62
    2
 10
161.73051258285841
 20
47.83209268005259
 40
6.4000000000000004
 50
316.26020470829684
 51
0.000000186127841
  0
LINE
  8
_0-1_
  6
DASHED1
 62
    2
 10
168.13051258237428
 20
47.832092700843269
 11
168.13051258237428
 21
49.432092700833628
  0
LINE
  8
_0-1_
  6
DASHED1
 62
    2
 10
168.13051258237428
 20
49.432092700833628
 11
185.33051258264913
 21
49.432092700833628
  0
LINE
  8
_0-1_
  6
DASHED1
 62
    2
 10
167.80998624339318
 20
53.432092700833628
 11
185.33051258264913
 21
53.432092700833628
  0
ARC
  8
_0-1_
  6
DASHED1
 62
    2
 10
161.73051258244914
 20
51.432092680042949
 40
6.4000000000000004
 50
16.570258384632947
 51
43.432536557904712
  0
LINE
  8
_0-1_
  6
DASHED1
 62
    2
 10
185.33051258264913
 20
53.432092700833628
 11
185.33051258264913
 21
55.832092680052284
  0
LINE
  8
_0-1_
  6
DASHED1
 62
    2
 10
185.33051258264913
 20
-106.65406092860417
 11
185.33051258264913
 21
49.432092700833628
  0
LINE
  8
_0-1_
  6
DASHED1
 62
    2
 10
-152.6694874175416
 20
103.83209519470574
 11
-154.66948741735087
 21
103.83209519470574
  0
LINE
  8
_0-1_
  6
DASHED1
 62
    2
 10
-154.66948741735087
 20
103.83209519470574
 11
-154.66948741615067
 21
113.83209519472496
  0
LINE
  8
_0-1_
  6
DASHED1
 62
    2
 10
-154.66948741615067
 20
113.83209519472496
 11
-186.66948741715066
 21
113.83209519472496
  0
LINE
  8
_0-1_
  6
DASHED1
 62
    2
 10
-186.66948741735087
 20
113.83209519472496
 11
-186.66948741735087
 21
55.463855096975983
  0
LINE
  8
_0-1_
  6
DASHED1
 62
    2
 10
-186.66948741735087
 20
55.463855096975983
 11
-185.28733763948767
 21
53.432092700843263
  0
LINE
  8
_0-1_
  6
DASHED1
 62
    2
 10
-185.28733763948767
 20
53.432092700843263
 11
-169.14896107906335
 21
53.432092700843263
  0
ARC
  8
_0-1_
  6
DASHED1
 62
    2
 10
-178.78680959457091
 20
47.432092700843263
 40
2
 50
90
 51
214.22633266265228
  0
LINE
  8
_0-1_
  6
DASHED1
 62
    2
 10
-180.44045391076858
 20
46.307165825216593
 11
-74.181465872090001
 21
-109.893717469699
  0
LINE
  8
_0-1_
  6
DASHED1
 62
    2
 10
-178.78680959457091
 20
49.432092700843263
 11
-169.14896107906335
 21
49.432092700843263
  0
ARC
  8
_0-1_
  6
DASHED1
 62
    2
 10
-163.06948741763509
 20
51.432092700843292
 40
6.4000000000000004
 50
198.20995686428327
 51
313.73979529170458
  0
ARC
  8
_0-1_
  6
DASHED1
 62
    2
 10
-163.06948741763509
 20
51.432092700843292
 40
3.6000000000000001
 50
46.260204708302162
 51
313.73979529170447
  0
ARC
  8
_0-1_
  6
DASHED1
 62
    2
 10
-159.6125654794827
 20
47.819657135434632
 40
1.3999999999999999
 50
313.7397952918086
 51
133.73979529149591
  0
ARC
  8
_0-1_
  6
DASHED1
 62
    2
 10
-159.61256547948258
 20
55.044528265968815
 40
1.3999999999999999
 50
226.26020470839975
 51
46.260204708197875
  0
ARC
  8
_0-1_
  6
DASHED1
 62
    2
 10
-163.06948741763509
 20
51.432092700843292
 40
6.4000000000000004
 50
46.260204708302162
 51
161.79004313571724
  0
ARC
  8
_0-1_
  6
DASHED1
 62
    2
 10
-72.527821555892302
 20
-108.76879059407236
 40
2
 50
214.22633266265058
 51
312.43954336163171
  0
ARC
  8
_0-1_
  6
DASHED1
 62
    2
 10
-66.859401758347929
 20
-114.96790480489369
 40
6.4000000000000004
 50
108.37337103829552
 51
132.43954336163171
  0
ARC
  8
_0-1_
  6
DASHED1
 62
    2
 10
-68.43544176017005
 20
-110.22279174919473
 40
1.3999999999999997
 50
288.3733710385041
 51
108.37337103819138
  0
ARC
  8
_0-1_
  6
DASHED1
 62
    2
 10
-66.859401758347929
 20
-114.96790480489369
 40
3.6000000000000001
 50
108.37337103829557
 51
15.852961621697887
  0
ARC
  8
_0-1_
  6
DASHED1
 62
    2
 10
-62.049572263592552
 20
-113.60205699855163
 40
1.3999999999999997
 50
15.852961621600238
 51
195.85296162169794
  0
ARC
  8
_0-1_
  6
DASHED1
 62
    2
 10
-66.859401758347929
 20
-114.96790480489369
 40
6.4000000000000004
 50
351.78678929549892
 51
15.852961621697384
  0
ARC
  8
_0-1_
  6
DASHED1
 62
    2
 10
-58.545557882075187
 20
-116.1679048052946
 40
2
 50
171.78678929549875
 51
270
  0
LINE
  8
_0-1_
  6
DASHED1
 62
    2
 10
-58.545557882075187
 20
-118.1679048052946
 11
173.81666870609172
 21
-118.1679048052946
  0
ARC
  8
_0-1_
  6
DASHED1
 62
    2
 10
173.81666870609172
 20
-116.1679048052946
 40
2
 50
270
 51
8.213210704501277
  0
ARC
  8
_0-1_
  6
DASHED1
 62
    2
 10
182.13051258236447
 20
-114.96790480489369
 40
6.4000000000000004
 50
181.26020470829539
 51
188.21321070450105
  0
ARC
  8
_0-1_
  6
DASHED1
 62
    2
 10
177.13172195316457
 20
-115.07786954529354
 40
1.3999999999999999
 50
1.2602047085040915
 51
181.26020470819137
  0
ARC
  8
_0-1_
  6
DASHED1
 62
    2
 10
182.13051258236447
 20
-114.96790480489369
 40
3.6000000000000001
 50
181.26020470829556
 51
88.739795291697874
  0
ARC
  8
_0-1_
  6
DASHED1
 62
    2
 10
182.24047732276432
 20
-109.96911417569379
 40
1.3999999999999999
 50
88.739795291600231
 51
268.73979529169793
  0
ARC
  8
_0-1_
  6
DASHED1
 62
    2
 10
182.13051258236447
 20
-114.96790480489369
 40
6.4000000000000004
 50
81.786789296300142
 51
88.739795291697462
  0
ARC
  8
_0-1_
  6
DASHED1
 62
    2
 10
183.33051258264913
 20
-106.65406092860417
 40
2
 50
261.78678929630001
 51
0
  0
ENDBLK
  0
BLOCK
  2
-004-MIZUDOME_2_
 70
   64
 10
0
 20
0
 30
0
  0
ARC
  8
_0-1_
  6
CONTINUOUS
 62
    7
 10
-37.728571428603317
 20
31.668253492826693
 40
6
 50
180
 51
270
  0
ARC
  8
_0-1_
  6
CONTINUOUS
 62
    7
 10
68.271428571396655
 20
-31.665079009219141
 40
2
 50
270
 51
0
  0
LINE
  8
_0-1_
  6
CONTINUOUS
 62
    7
 10
-37.728571428603317
 20
25.668253492826636
 11
70.271428571396655
 21
25.668253492826636
  0
LINE
  8
_0-1_
  6
CONTINUOUS
 62
    7
 10
70.271428571396655
 20
25.668253492826636
 11
70.271428571396655
 21
-31.665079009219141
  0
LINE
  8
_0-1_
  6
CONTINUOUS
 62
    7
 10
-43.728571428603317
 20
45.668254324117441
 11
-56.395238095269974
 21
45.668254324179458
  0
LINE
  8
_0-1_
  6
CONTINUOUS
 62
    7
 10
-43.728571428603317
 20
31.668253492826693
 11
-43.728571428603317
 21
45.668254324117441
  0
LINE
  8
_0-5__
  6
CENTER1
 62
    4
 10
-43.695238095203308
 20
24.201586826160053
 11
-50.695238095203308
 21
24.201586826160053
  0
LINE
  8
_0-5__
  6
CENTER1
 62
    4
 10
64.571428571463343
 20
23.001586826160064
 11
57.571428571463343
 21
23.001586826160064
  0
LINE
  8
_0-5__
  6
CENTER1
 62
    4
 10
71.371428571463355
 20
-31.265079007173313
 11
64.371428571463355
 21
-31.265079007173313
  0
LINE
  8
_0-5__
  6
CENTER1
 62
    4
 10
-47.195238095203308
 20
27.701586826160053
 11
-47.195238095203308
 21
20.701586826160053
  0
LINE
  8
_0-5__
  6
CENTER1
 62
    4
 10
61.071428571463343
 20
26.501586826160064
 11
61.071428571463343
 21
19.501586826160064
  0
LINE
  8
_0-5__
  6
CENTER1
 62
    4
 10
67.871428571463355
 20
-27.765079007173313
 11
67.871428571463355
 21
-34.765079007173313
  0
LINE
  8
_0-5__
  6
CENTER1
 62
    4
 10
-11.625209542205425
 20
-31.265079002155353
 11
-18.625209542205425
 21
-31.265079002155353
  0
LINE
  8
_0-5__
  6
CENTER1
 62
    4
 10
-15.125209542205425
 20
-27.765079002155353
 11
-15.125209542205425
 21
-34.765079002155353
  0
LINE
  8
_0-1_
  6
CONTINUOUS
 62
    7
 10
-15.336880962942345
 20
-33.665079009219141
 11
68.271428571396655
 21
-33.665079009219141
  0
ARC
  8
_0-1_
  6
CONTINUOUS
 62
    7
 10
-15.336880962942342
 20
-31.665079009219141
 40
2
 50
214.22633266265234
 51
270
  0
LINE
  8
_0-1_
  6
CONTINUOUS
 62
    7
 10
-56.048882411467623
 20
24.625841910515053
 11
-16.990525279139998
 21
-32.790005884845812
  0
LINE
  8
_0-1_
  6
CONTINUOUS
 62
    7
 10
-56.395238095269974
 20
25.75076878614172
 11
-56.395238095269974
 21
45.668254324179458
  0
ARC
  8
_0-1_
  6
CONTINUOUS
 62
    7
 10
-54.395238095269974
 20
25.75076878614172
 40
2
 50
180
 51
214.22633266265228
  0
ENDBLK
  0
BLOCK
  2
-005-TX4X16O
 70
   64
 10
0
 20
0
 30
0
  0
LINE
  8
_0-1_
  6
DASHED1
 62
    5
 10
-4.1924696583440664
 20
-6.883305121309192
 11
4.2074297411292605
 21
-5.4727000135891757
  0
LINE
  8
_0-1_
  6
DASHED1
 62
    5
 10
-4.1924696583440664
 20
-3.6833053643306783
 11
4.2074297411292605
 21
-2.2727002566107188
  0
LINE
  8
_0-1_
  6
DASHED1
 62
    5
 10
-4.1924696583440664
 20
-0.4833056073522783
 11
4.2074297411292605
 21
0.927299500367738
  0
LINE
  8
_0-1_
  6
DASHED1
 62
    5
 10
-4.1924696583440664
 20
2.7166941496262353
 11
4.2074297411292605
 21
4.1272992573461948
  0
LINE
  8
_0-1_
  6
DASHED1
 62
    5
 10
-4.1924696583440664
 20
5.9166939066046353
 11
4.2074297411292605
 21
7.3272990143246517
  0
LINE
  8
_0-1_
  6
DASHED1
 62
    5
 10
-4.1924696583440664
 20
9.116693663583149
 11
4.2074297411292605
 21
10.527298771303109
  0
LINE
  8
_0-1_
  6
DASHED1
 62
    5
 10
3.2073994619730684
 20
-8.3087538618538446
 11
-3.1925497492252362
 21
-9.2442368407193243
  0
LINE
  8
_0-1_
  6
DASHED1
 62
    5
 10
-1.7925176371340399
 20
-16.94073761887698
 11
0.9280833851693159
 21
-8.6330117125102532
  0
LINE
  8
_0-1_
  6
DASHED1
 62
    5
 10
0.0074975038110096
 20
-18.672705544942502
 11
-1.7924933183405756
 21
-16.940665139620293
  0
LINE
  8
_0-1_
  6
DASHED1
 62
    5
 10
-1.7925125110317595
 20
-16.940647973528982
 11
-3.1925046881536332
 21
-16.940647973528982
  0
LINE
  8
_0-1_
  6
DASHED1
 62
    5
 10
0.0074655859197605
 20
-18.672779931519059
 11
3.2074454767797533
 21
-9.5118721861655757
  0
LINE
  8
_0-1_
  6
DASHED1
 62
    5
 10
0.928051079456452
 20
-8.6329573530712622
 11
3.2074383242082263
 21
-9.5118225950699724
  0
LINE
  8
_0-1_
  6
DASHED1
 62
    3
 10
0.0074953850989913
 20
-18.672692193461145
 11
-3.1924930056307517
 21
-16.940636529441733
  0
LINE
  8
_0-1_
  6
DASHED1
 62
    3
 10
3.2074552519053441
 20
-16.940629503967372
 11
0.0074733485926685
 21
-18.672680749410731
  0
LINE
  8
_0-1_
  6
DASHED1
 62
    3
 10
-3.1925046881144681
 20
-16.940647973527618
 11
-3.1925046881144681
 21
13.327296362430232
  0
LINE
  8
_0-1_
  6
DASHED1
 62
    3
 10
3.2074552519053441
 20
-16.940629503967372
 11
3.2074552519053441
 21
13.327296362430232
  0
LINE
  8
_0-1_
  6
CONTINUOUS
 62
    7
 10
8.0074752819145942
 20
13.727296338606735
 11
8.0074752819145942
 21
16.336426458888027
  0
LINE
  8
_0-1_
  6
CONTINUOUS
 62
    7
 10
7.6074737559902132
 20
13.327296362430232
 11
-7.5925231922213925
 21
13.327296362430232
  0
ARC
  8
_0-1_
  6
CONTINUOUS
 62
    7
 10
0.0074752678851837
 20
4.2516355254033016
 40
14.675660837055725
 50
57.776535044633405
 51
122.22346325049699
  0
ARC
  8
_0-1_
  6
CONTINUOUS
 62
    7
 10
-7.5925231922933563
 20
16.336426458845054
 40
0.3999999761581999
 50
124.29764032734626
 51
179.99996402781815
  0
ARC
  8
_0-1_
  6
CONTINUOUS
 62
    7
 10
-7.5925231922025773
 20
13.727296338562056
 40
0.3999999761581999
 50
180.00003597218074
 51
270.0000179860902
  0
LINE
  8
_0-1_
  6
CONTINUOUS
 62
    7
 10
-7.9925247180807446
 20
13.727296338598833
 11
-7.9925247180807446
 21
16.336426458880126
  0
ARC
  8
_0-1_
  6
CONTINUOUS
 62
    7
 10
7.6074737560355743
 20
16.336426458866654
 40
0.3999999761581999
 50
359.99999999999943
 51
55.702357851419322
  0
ARC
  8
_0-1_
  6
CONTINUOUS
 62
    7
 10
7.6074737560098811
 20
13.727296338585361
 40
0.3999999761581999
 50
270.0000179860902
 51
359.99999999999943
  0
ENDBLK
  0
BLOCK
  2
-006-GT4X16K
 70
   64
 10
0
 20
0
 30
0
  0
LINE
  8
_0-1_
  6
DASHED1
 62
    5
 10
-4.1499996271953137
 20
-7.8545968584093258
 11
4.1499977025166004
 21
-5.6306207231554195
  0
LINE
  8
_0-1_
  6
DASHED1
 62
    5
 10
-4.1499996271953137
 20
-4.6545846513772231
 11
4.1499977025166004
 21
-2.4306085161233169
  0
LINE
  8
_0-1_
  6
DASHED1
 62
    5
 10
-4.1499996271953137
 20
-1.4545724443451205
 11
4.1499977025166004
 21
0.7694036909087858
  0
LINE
  8
_0-1_
  6
DASHED1
 62
    5
 10
-4.1499996271953137
 20
1.745439762687039
 11
4.1499977025166004
 21
3.9694158979409453
  0
LINE
  8
_0-1_
  6
DASHED1
 62
    5
 10
-4.1499996271953137
 20
4.9454519697191985
 11
4.1499977025166004
 21
7.1694281049731048
  0
LINE
  8
_0-1_
  6
DASHED1
 62
    5
 10
-4.1499996271953137
 20
8.1454641767513003
 11
4.1499977025166004
 21
10.369440312005207
  0
LINE
  8
_0-1_
  6
DASHED1
 62
    5
 10
-3.0000009623393566
 20
-8.1456239275011804
 11
2.9999985608234851
 21
-8.1456239275011804
  0
LINE
  8
_0-1_
  6
DASHED1
 62
    5
 10
-2.9998799776073497
 20
-16.146451738763307
 11
3.0001195455554921
 21
-16.146814692931077
  0
LINE
  8
_0-1_
  6
DASHED1
 62
    3
 10
-2.5436123536734385
 20
-17.850030332895376
 11
-3.0000009623393566
 21
-16.146764857358352
  0
ARC
  8
_0-1_
  6
DASHED1
 62
    3
 10
-2.157242023157778
 20
-17.746502714854405
 40
0.4
 50
194.99999999999937
 51
269.99653404273329
  0
LINE
  8
_0-1_
  6
DASHED1
 62
    3
 10
2.1571588441349832
 20
-18.146763703903066
 11
-2.1572662201041908
 21
-18.146502714122466
  0
LINE
  8
_0-1_
  6
DASHED1
 62
    3
 10
2.5435533715970564
 20
-17.850291322675918
 11
2.9999985608234851
 21
-16.14681468561243
  0
ARC
  8
_0-1_
  6
DASHED1
 62
    3
 10
2.1571830410813959
 20
-17.746763704634891
 40
0.4
 50
269.99653404273317
 51
345
  0
ARC
  8
_0-1_
  6
DASHED1
 62
    3
 10
-6.1999945250377664
 20
14.254165379274337
 40
0.4
 50
180
 51
269.99653404273363
  0
LINE
  8
_0-1_
  6
DASHED1
 62
    3
 10
6.1999812780159118
 20
13.853415274666514
 11
-6.2000187219841223
 21
13.854165380006219
  0
ARC
  8
_0-1_
  6
DASHED1
 62
    3
 10
6.2000054749623246
 20
14.253415273934689
 40
0.4
 50
269.99653404273363
 51
0.0000000000000254
  0
LINE
  8
_0-1_
  6
DASHED1
 62
    3
 10
-6.5999945250377436
 20
14.254165379274337
 11
-6.5999945250377436
 21
14.669630571143426
  0
ARC
  8
_0-1_
  6
DASHED1
 62
    3
 10
-2.5999945250377436
 20
14.669630571143426
 40
4
 50
106.79144711458883
 51
180
  0
LINE
  8
_0-1_
  6
DASHED1
 62
    3
 10
6.6000054749623018
 20
14.253415273934689
 11
6.6000054749623018
 21
14.669630571143426
  0
ARC
  8
_0-1_
  6
DASHED1
 62
    3
 10
2.6000054749623018
 20
14.669630571143426
 40
4
 50
0
 51
73.208552885411166
  0
ARC
  8
_0-1_
  6
DASHED1
 62
    3
 10
0.000005474962279
 20
6.0533668797282703
 40
13
 50
73.208552885411152
 51
106.79144711458883
  0
LINE
  8
_0-1_
  6
DASHED1
 62
    3
 10
-2.9999945250377209
 20
13.853971802970914
 11
-2.9999945250377209
 21
-16.146451738763307
  0
LINE
  8
_0-1_
  6
DASHED1
 62
    3
 10
3.0000054749622791
 20
13.853608848774325
 11
3.0000054749622791
 21
-16.146814692931077
  0
ENDBLK
  0
ENDSEC
  0
SECTION
  2
ENTITIES
  0
LINE
  8
ADD_LINE
  6
DOT
 62
    9
 10
538.67385039458418
 20
50
 11
538.67385039458418
 21
25
  0
LINE
  8
ADD_LINE
  6
DOT
 62
    9
 10
578.67385039458418
 20
50
 11
578.67385039458418
 21
25
  0
LINE
  8
ADD_LINE
  6
DOT
 62
    9
 10
820.51077559187615
 20
50
 11
820.51077559187615
 21
25
  0
LINE
  8
ADD_LINE
  6
DOT
 62
    9
 10
60.54106559187619
 20
50
 11
60.54106559187619
 21
25
  0
TEXT
  8
_f-a__
 62
    7
 10
289.60745799323013
 20
50
 40
6
 41
0.8333333333333333
 50
0
  1
名　　称
  0
TEXT
  8
_f-a__
 62
    7
 10
548.67385039458418
 20
50
 40
6
 41
0.8333333333333333
 50
0
  1
縮　　尺
  0
TEXT
  8
_f-a__
 62
    7
 10
689.59231299323017
 20
50
 40
6
 41
0.8333333333333333
 50
0
  1
品　　番
  0
LINE
  8
ADD_LINE
  6
DOT
 62
    9
 10
60.54106559187619
 20
50
 11
820.51077559187615
 21
50
  0
LINE
  8
ADD_LINE
  6
DOT
 62
    9
 10
60.54106559187619
 20
25
 11
820.51077559187615
 21
25
  0
TEXT
  8
_0-a__
 62
    3
 10
552.17385039458418
 20
32.5
 40
10
 41
0.8
 50
0
  1
1/2
  0
LINE
  8
_0-2__
  6
CONTINUOUS
 62
    7
 10
322.59544173299287
 20
419.22024480075186
 11
222.5954417329927
 21
419.22024480075186
  0
LINE
  8
_0-3__
  6
DASHED1
 62
    3
 10
197.59544173299275
 20
429.42024480085183
 11
347.59544173299281
 21
429.42024480085183
  0
LINE
  8
_0-2__
  6
CONTINUOUS
 62
    7
 10
197.59544173299292
 20
263.52024480075193
 11
347.59544173299298
 21
263.52024480075193
  0
LINE
  8
_0-2__
  6
CONTINUOUS
 62
    7
 10
322.59544173299287
 20
434.22024480075186
 11
222.5954417329927
 21
434.22024480075186
  0
LINE
  8
_0-2__
  6
CONTINUOUS
 62
    7
 10
322.59544173299298
 20
239.22024480075186
 11
222.59544173299287
 21
239.22024480075189
  0
LINE
  8
_0-2__
  6
CONTINUOUS
 62
    7
 10
322.59544173299298
 20
239.22024480075186
 11
322.59544173299298
 21
251.72024480075208
  0
LINE
  8
_0-2__
  6
CONTINUOUS
 62
    7
 10
322.59544173299287
 20
419.22024480075186
 11
322.59544173299287
 21
434.22024480075186
  0
LINE
  8
_0-3__
  6
DASHED1
 62
    3
 10
322.59544173299298
 20
254.07914634184795
 11
322.59544173299287
 21
416.81223938378804
  0
LINE
  8
_0-2__
  6
CONTINUOUS
 62
    7
 10
347.59544173299298
 20
251.72024480075208
 11
347.59544173299281
 21
421.72024480075208
  0
LINE
  8
_0-3__
  6
DASHED1
 62
    3
 10
347.59544173299281
 20
421.72024480075208
 11
347.59544173299281
 21
429.42024480085183
  0
LINE
  8
_0-2__
  6
CONTINUOUS
 62
    7
 10
324.56304176784022
 20
251.72024480075208
 11
347.59544173299298
 21
251.72024480075208
  0
LINE
  8
_0-2__
  6
CONTINUOUS
 62
    7
 10
222.59544173299287
 20
419.22024480075186
 11
222.59544173299287
 21
434.22024480075186
  0
LINE
  8
_0-3__
  6
DASHED1
 62
    3
 10
222.5954417329927
 20
254.07914634184797
 11
222.59544173299287
 21
416.81223938378798
  0
LINE
  8
_0-2__
  6
CONTINUOUS
 62
    7
 10
197.59544173299275
 20
251.72024480075194
 11
197.59544173299292
 21
421.72024480075197
  0
LINE
  8
_0-3__
  6
DASHED1
 62
    3
 10
197.59544173299292
 20
421.72024480075197
 11
197.59544173299292
 21
429.42024480085172
  0
LINE
  8
_0-2__
  6
CONTINUOUS
 62
    7
 10
222.5954417329927
 20
251.72024480075211
 11
322.59544173299298
 21
251.72024480075208
  0
LINE
  8
_0-2__
  6
CONTINUOUS
 62
    7
 10
222.5954417329927
 20
239.22024480075189
 11
222.5954417329927
 21
251.72024480075211
  0
LINE
  8
_0-2__
  6
CONTINUOUS
 62
    7
 10
220.62784169814569
 20
251.72024480075194
 11
197.59544173299292
 21
251.72024480075194
  0
LINE
  8
_0-3__
  6
DASHED1
 62
    3
 10
322.59544173299298
 20
241.22024480075186
 11
222.59544173299287
 21
241.22024480075186
  0
LINE
  8
_0-3__
  6
DASHED1
 62
    3
 10
222.59544173299287
 20
432.2202448007518
 11
322.59544173299287
 21
432.2202448007518
  0
LINE
  8
_0-3__
  6
DASHED1
 62
    3
 10
197.59544173299275
 20
261.72024480075186
 11
272.59544173299292
 21
261.72024480075186
  0
LINE
  8
_0-3__
  6
DASHED1
 62
    3
 10
347.59544173299298
 20
261.72024480075186
 11
272.59544173299292
 21
261.72024480075186
  0
LINE
  8
_0-3__
  6
DASHED1
 62
    3
 10
347.59544173299281
 20
427.62024480085176
 11
197.59544173299292
 21
427.62024480085176
  0
INSERT
  2
-004-MIZUDOME_2_
  8
_0-b__
 10
626.66231910920192
 20
326.31310194356161
 41
1.5
 42
1.5
 50
90
  0
INSERT
  2
-003-NT-12N_1_
  8
_0-b__
 10
616.07598520998818
 20
337.0549885094274
 41
0.5
 42
0.5
 50
90
  0
INSERT
  2
-001-EJ_COVER
  8
_0-b__
 10
557.15993761271295
 20
261.72024480075191
 41
0.5
 42
0.5
 50
90
  0
LINE
  8
_0-1_
  6
CENTER1
 62
    4
 10
551.4824315560885
 20
256.7202448007539
 11
573.66161090783339
 21
256.7202448007539
  0
LINE
  8
_0-1_
  6
CENTER1
 62
    4
 10
546.53139285678412
 20
245.9202448007519
 11
567.84744367117378
 21
245.9202448007519
  0
CIRCLE
  8
_0-2__
  6
CONTINUOUS
 62
    7
 10
592.1599388596394
 20
417.92024480085661
 40
4
  0
CIRCLE
  8
_0-2__
  6
CONTINUOUS
 62
    7
 10
673.55993760963952
 20
428.12024480085665
 40
4
  0
CIRCLE
  8
_0-2__
  6
CONTINUOUS
 62
    7
 10
590.35993885963944
 20
255.52024480085666
 40
4
  0
INSERT
  2
-002-M4TRUSHEAD_2_
  8
_0-b__
 10
590.35993885963944
 20
255.52024480085666
 41
0.5
 42
0.5
 50
0
  0
INSERT
  2
-002-M4TRUSHEAD_2_
  8
_0-b__
 10
673.55993760963952
 20
428.12024480085665
 41
0.5
 42
0.5
 50
0
  0
INSERT
  2
-002-M4TRUSHEAD_2_
  8
_0-b__
 10
592.1599388596394
 20
417.92024480085661
 41
0.5
 42
0.5
 50
0
  0
INSERT
  2
-000-JEJ-12N
  8
_0-b__
 10
604.00731193332149
 20
337.15578538278203
 41
0.5
 42
0.5
 50
90
  0
CIRCLE
  8
_0-2__
  6
CONTINUOUS
 62
    7
 10
673.55993760963952
 20
303.62528763025347
 40
4
  0
INSERT
  2
-002-M4TRUSHEAD_2_
  8
_0-b__
 10
673.55993760963952
 20
303.62528763025347
 41
0.5
 42
0.5
 50
0
  0
LINE
  8
_0-3__
  6
DASHED1
 62
    3
 10
255.59544173299287
 20
414.7202448006521
 11
197.59544173299292
 21
414.72024480065215
  0
LINE
  8
_0-3__
  6
DASHED1
 62
    3
 10
255.5954417329927
 20
241.72024480075197
 11
255.59544173299287
 21
431.72024480075197
  0
LINE
  8
_0-3__
  6
DASHED1
 62
    3
 10
257.59544173299281
 20
241.72024480075197
 11
257.59544173299298
 21
431.72024480075197
  0
LINE
  8
_0-3__
  6
DASHED1
 62
    3
 10
222.5954417329927
 20
249.72024480075189
 11
255.5954417329927
 21
249.72024480075186
  0
LINE
  8
_0-3__
  6
DASHED1
 62
    3
 10
222.5954417329927
 20
241.720244800752
 11
257.59544173299281
 21
241.72024480075197
  0
LINE
  8
_0-3__
  6
DASHED1
 62
    3
 10
222.59544173299287
 20
421.72024480075197
 11
255.59544173299287
 21
421.72024480075197
  0
LINE
  8
_0-3__
  6
DASHED1
 62
    3
 10
257.59544173299298
 20
422.72024480085179
 11
197.59544173299292
 21
422.72024480085179
  0
LINE
  8
_0-3__
  6
DASHED1
 62
    3
 10
222.5954417329927
 20
431.72024480075197
 11
257.59544173299281
 21
431.72024480075197
  0
LINE
  8
_0-3__
  6
DASHED1
 62
    3
 10
258.59544173299298
 20
424.12024480085176
 11
258.59544173299298
 21
432.12024480085176
  0
LINE
  8
_0-3__
  6
DASHED1
 62
    3
 10
257.59544173299292
 20
424.12024480085176
 11
258.59544173299298
 21
424.12024480085176
  0
LINE
  8
_0-3__
  6
DASHED1
 62
    3
 10
257.59544173299292
 20
432.12024480085176
 11
257.59544173299292
 21
424.12024480085176
  0
LINE
  8
_0-3__
  6
DASHED1
 62
    3
 10
257.59544173299292
 20
432.12024480085176
 11
258.59544173299298
 21
432.12024480085176
  0
LINE
  8
_0-3__
  6
DASHED1
 62
    3
 10
258.59544173299298
 20
413.92024480085655
 11
258.59544173299298
 21
421.92024480085655
  0
LINE
  8
_0-3__
  6
DASHED1
 62
    3
 10
257.59544173299292
 20
413.92024480085655
 11
258.59544173299298
 21
413.92024480085655
  0
LINE
  8
_0-3__
  6
DASHED1
 62
    3
 10
257.59544173299292
 20
421.92024480085655
 11
257.59544173299292
 21
413.92024480085655
  0
LINE
  8
_0-3__
  6
DASHED1
 62
    3
 10
257.59544173299292
 20
421.92024480085655
 11
258.59544173299298
 21
421.92024480085655
  0
LINE
  8
_0-3__
  6
DASHED1
 62
    3
 10
258.59544173299281
 20
251.52024480085177
 11
258.59544173299281
 21
259.5202448008518
  0
LINE
  8
_0-3__
  6
DASHED1
 62
    3
 10
257.59544173299275
 20
251.52024480085177
 11
258.59544173299281
 21
251.52024480085177
  0
LINE
  8
_0-3__
  6
DASHED1
 62
    3
 10
257.59544173299275
 20
259.5202448008518
 11
257.59544173299275
 21
251.52024480085177
  0
LINE
  8
_0-3__
  6
DASHED1
 62
    3
 10
257.59544173299275
 20
259.5202448008518
 11
258.59544173299281
 21
259.5202448008518
  0
LINE
  8
_0-1_
  6
CENTER1
 62
    4
 10
241.17906793010701
 20
255.52024480085191
 11
263.93607791029189
 21
255.52024480085191
  0
LINE
  8
_0-1_
  6
CENTER1
 62
    4
 10
241.17906793010701
 20
417.92024480085649
 11
263.93607791029183
 21
417.92024480085649
  0
LINE
  8
_0-1_
  6
CENTER1
 62
    4
 10
241.17906793010701
 20
428.12024480085171
 11
263.93607791029183
 21
428.12024480085171
  0
LINE
  8
_0-1_
  6
CENTER1
 62
    4
 10
241.17906793010701
 20
303.62528763025341
 11
263.93607791029189
 21
303.62528763025341
  0
LINE
  8
_0-3__
  6
DASHED1
 62
    3
 10
258.59544173299281
 20
299.6252876302533
 11
258.59544173299281
 21
307.6252876302533
  0
LINE
  8
_0-3__
  6
DASHED1
 62
    3
 10
257.59544173299275
 20
299.6252876302533
 11
258.59544173299281
 21
299.6252876302533
  0
LINE
  8
_0-3__
  6
DASHED1
 62
    3
 10
257.59544173299275
 20
307.6252876302533
 11
257.59544173299275
 21
299.6252876302533
  0
LINE
  8
_0-3__
  6
DASHED1
 62
    3
 10
257.59544173299275
 20
307.6252876302533
 11
258.59544173299281
 21
307.6252876302533
  0
POINT
  8
_0-9__
 62
    4
 10
257.59544173299281
 20
220.40749824337212
  0
LINE
  8
_0-9__
  6
CONTINUOUS
 62
    4
 10
257.59544173299281
 20
218.40749824337212
 11
257.59544173299281
 21
239.72024480075197
  0
LINE
  8
_0-3__
  6
DASHED1
 62
    3
 10
289.59544173299287
 20
414.72024480065215
 11
347.59544173299281
 21
414.72024480065215
  0
LINE
  8
_0-3__
  6
DASHED1
 62
    3
 10
289.59544173299298
 20
241.72024480075197
 11
289.59544173299287
 21
431.72024480075197
  0
LINE
  8
_0-3__
  6
DASHED1
 62
    3
 10
287.59544173299298
 20
241.72024480075197
 11
287.59544173299281
 21
431.72024480075197
  0
LINE
  8
_0-3__
  6
DASHED1
 62
    3
 10
322.59544173299298
 20
249.72024480075186
 11
289.59544173299298
 21
249.72024480075186
  0
LINE
  8
_0-3__
  6
DASHED1
 62
    3
 10
322.59544173299298
 20
241.72024480075197
 11
287.59544173299298
 21
241.72024480075197
  0
LINE
  8
_0-3__
  6
DASHED1
 62
    3
 10
322.59544173299287
 20
421.72024480075208
 11
289.59544173299287
 21
421.72024480075208
  0
LINE
  8
_0-3__
  6
DASHED1
 62
    3
 10
287.59544173299281
 20
422.72024480085184
 11
347.59544173299281
 21
422.72024480085184
  0
LINE
  8
_0-3__
  6
DASHED1
 62
    3
 10
322.59544173299287
 20
431.72024480075197
 11
287.59544173299281
 21
431.72024480075197
  0
LINE
  8
_0-3__
  6
DASHED1
 62
    3
 10
286.59544173299281
 20
432.12024480085176
 11
286.59544173299281
 21
424.12024480085176
  0
LINE
  8
_0-3__
  6
DASHED1
 62
    3
 10
287.59544173299281
 20
432.12024480085176
 11
286.59544173299281
 21
432.12024480085176
  0
LINE
  8
_0-3__
  6
DASHED1
 62
    3
 10
287.59544173299281
 20
424.12024480085176
 11
287.59544173299281
 21
432.12024480085176
  0
LINE
  8
_0-3__
  6
DASHED1
 62
    3
 10
287.59544173299281
 20
424.12024480085176
 11
286.59544173299281
 21
424.12024480085176
  0
LINE
  8
_0-3__
  6
DASHED1
 62
    3
 10
286.59544173299281
 20
421.92024480085655
 11
286.59544173299281
 21
413.92024480085655
  0
LINE
  8
_0-3__
  6
DASHED1
 62
    3
 10
287.59544173299281
 20
421.92024480085655
 11
286.59544173299281
 21
421.92024480085655
  0
LINE
  8
_0-3__
  6
DASHED1
 62
    3
 10
287.59544173299281
 20
413.92024480085655
 11
287.59544173299281
 21
421.92024480085655
  0
LINE
  8
_0-3__
  6
DASHED1
 62
    3
 10
287.59544173299281
 20
413.92024480085655
 11
286.59544173299281
 21
413.92024480085655
  0
LINE
  8
_0-3__
  6
DASHED1
 62
    3
 10
286.59544173299281
 20
259.52024480085197
 11
286.59544173299281
 21
251.52024480085194
  0
LINE
  8
_0-3__
  6
DASHED1
 62
    3
 10
287.59544173299281
 20
259.52024480085197
 11
286.59544173299281
 21
259.52024480085197
  0
LINE
  8
_0-3__
  6
DASHED1
 62
    3
 10
287.59544173299281
 20
251.52024480085194
 11
287.59544173299281
 21
259.52024480085197
  0
LINE
  8
_0-3__
  6
DASHED1
 62
    3
 10
287.59544173299281
 20
251.52024480085194
 11
286.59544173299281
 21
251.52024480085194
  0
LINE
  8
_0-1_
  6
CENTER1
 62
    4
 10
304.0118155358789
 20
428.12024480085176
 11
281.25480555569402
 21
428.12024480085176
  0
LINE
  8
_0-1_
  6
CENTER1
 62
    4
 10
304.0118155358789
 20
417.92024480085655
 11
281.25480555569402
 21
417.92024480085655
  0
LINE
  8
_0-1_
  6
CENTER1
 62
    4
 10
304.0118155358789
 20
255.52024480085197
 11
281.25480555569402
 21
255.52024480085197
  0
LINE
  8
_0-1_
  6
CENTER1
 62
    4
 10
304.0118155358789
 20
303.62528763025347
 11
281.25480555569402
 21
303.62528763025347
  0
LINE
  8
_0-3__
  6
DASHED1
 62
    3
 10
286.59544173299281
 20
307.62528763025347
 11
286.59544173299281
 21
299.62528763025347
  0
LINE
  8
_0-3__
  6
DASHED1
 62
    3
 10
287.59544173299281
 20
307.62528763025347
 11
286.59544173299281
 21
307.62528763025347
  0
LINE
  8
_0-3__
  6
DASHED1
 62
    3
 10
287.59544173299281
 20
299.62528763025347
 11
287.59544173299281
 21
307.62528763025347
  0
LINE
  8
_0-3__
  6
DASHED1
 62
    3
 10
287.59544173299281
 20
299.62528763025347
 11
286.59544173299281
 21
299.62528763025347
  0
POINT
  8
_0-9__
 62
    4
 10
287.59544173299298
 20
220.40749824337212
  0
LINE
  8
_0-9__
  6
CONTINUOUS
 62
    4
 10
287.59544173299298
 20
218.40749824337212
 11
287.59544173299298
 21
239.72024480075197
  0
LINE
  8
_0-9__
  6
CONTINUOUS
 62
    4
 10
257.59544173299281
 20
220.40749824337212
 11
287.59544173299298
 21
220.40749824337212
  0
TEXT
  8
_0-9__
 62
    3
 10
268.34544173299287
 20
221.40749824337212
 40
10
 41
0.8
 50
0
  1
30
  0
POINT
  8
_0-9__
 62
    4
 10
222.59544173299287
 20
204.40749824337212
  0
POINT
  8
_0-9__
 62
    4
 10
322.59544173299298
 20
204.40749824337212
  0
LINE
  8
_0-9__
  6
CONTINUOUS
 62
    4
 10
222.59544173299287
 20
202.40749824337212
 11
222.59544173299287
 21
237.22024480075189
  0
LINE
  8
_0-9__
  6
CONTINUOUS
 62
    4
 10
322.59544173299298
 20
202.40749824337212
 11
322.59544173299298
 21
237.22024480075186
  0
LINE
  8
_0-9__
  6
CONTINUOUS
 62
    4
 10
222.59544173299287
 20
204.40749824337212
 11
322.59544173299298
 21
204.40749824337212
  0
TEXT
  8
_0-9__
 62
    3
 10
266.09544173299292
 20
205.40749824337212
 40
10
 41
0.8
 50
0
  1
100
  0
POINT
  8
_0-9__
 62
    4
 10
197.59544173299292
 20
188.40749824337212
  0
POINT
  8
_0-9__
 62
    4
 10
347.59544173299298
 20
188.40749824337212
  0
LINE
  8
_0-9__
  6
CONTINUOUS
 62
    4
 10
197.59544173299292
 20
186.40749824337212
 11
197.59544173299292
 21
249.72024480075194
  0
LINE
  8
_0-9__
  6
CONTINUOUS
 62
    4
 10
347.59544173299298
 20
186.40749824337212
 11
347.59544173299298
 21
249.72024480075208
  0
LINE
  8
_0-9__
  6
CONTINUOUS
 62
    4
 10
197.59544173299292
 20
188.40749824337212
 11
347.59544173299298
 21
188.40749824337212
  0
TEXT
  8
_0-9__
 62
    3
 10
266.09544173299292
 20
189.40749824337212
 40
10
 41
0.8
 50
0
  1
150
  0
LINE
  8
_0-2__
  6
CONTINUOUS
 62
    7
 10
452.88101303918938
 20
261.72024480075186
 11
347.59544173299298
 21
261.72024480075186
  0
LINE
  8
_0-2__
  6
CONTINUOUS
 62
    7
 10
347.59544173299281
 20
414.72024480065215
 11
452.88101303918938
 21
414.72024480065215
  0
LINE
  8
_0-2__
  6
CONTINUOUS
 62
    7
 10
452.88101303918938
 20
249.72024480075186
 11
322.59544173299298
 21
249.72024480075186
  0
LINE
  8
_0-2__
  6
CONTINUOUS
 62
    7
 10
452.88101303918938
 20
241.72024480075197
 11
322.59544173299298
 21
241.72024480075197
  0
LINE
  8
_0-2__
  6
CONTINUOUS
 62
    7
 10
452.88101303918938
 20
421.72024480075208
 11
322.59544173299287
 21
421.72024480075208
  0
LINE
  8
_0-2__
  6
CONTINUOUS
 62
    7
 10
452.88101303918938
 20
431.72024480075197
 11
322.59544173299287
 21
431.72024480075197
  0
LINE
  8
_0-3__
  6
DASHED1
 62
    3
 10
452.88101303918938
 20
429.72024480075197
 11
289.59544173299287
 21
429.72024480075197
  0
LINE
  8
_0-3__
  6
DASHED1
 62
    3
 10
452.88101303918938
 20
243.72024480075197
 11
289.59544173299304
 21
243.72024480075197
  0
POINT
  8
_0-9__
 62
    4
 10
550.15993761252514
 20
220.40749824337212
  0
POINT
  8
_0-9__
 62
    4
 10
589.72957045426926
 20
220.40749824337212
  0
LINE
  8
_0-9__
  6
CONTINUOUS
 62
    4
 10
550.15993761252514
 20
218.40749824337212
 11
550.15993761252514
 21
238.22024480065937
  0
LINE
  8
_0-9__
  6
CONTINUOUS
 62
    4
 10
589.72957045426926
 20
218.40749824337212
 11
589.72957045426926
 21
237.22024480065173
  0
LINE
  8
_0-9__
  6
CONTINUOUS
 62
    4
 10
550.15993761252514
 20
220.40749824337212
 11
589.72957045426926
 21
220.40749824337212
  0
TEXT
  8
_0-9__
 62
    3
 10
561.1947540333972
 20
221.40749824337212
 40
10
 41
0.8
 50
0
  1
39.6
  0
POINT
  8
_0-9__
 62
    4
 10
679.6599376126353
 20
220.40749824337212
  0
LINE
  8
_0-9__
  6
CONTINUOUS
 62
    4
 10
679.6599376126353
 20
218.40749824337212
 11
679.6599376126353
 21
301.30778049221834
  0
LINE
  8
_0-9__
  6
CONTINUOUS
 62
    4
 10
589.72957045426926
 20
220.40749824337212
 11
679.6599376126353
 21
220.40749824337212
  0
TEXT
  8
_0-9__
 62
    3
 10
625.94475403345223
 20
221.40749824337212
 40
10
 41
0.8
 50
0
  1
89.9
  0
POINT
  8
_0-9__
 62
    4
 10
550.15993761252514
 20
204.40749824337212
  0
POINT
  8
_0-9__
 62
    4
 10
679.6599376126353
 20
204.40749824337212
  0
LINE
  8
_0-9__
  6
CONTINUOUS
 62
    4
 10
550.15993761252514
 20
202.40749824337212
 11
550.15993761252514
 21
218.40749824337212
  0
LINE
  8
_0-9__
  6
CONTINUOUS
 62
    4
 10
679.6599376126353
 20
202.40749824337212
 11
679.6599376126353
 21
218.40749824337212
  0
LINE
  8
_0-9__
  6
CONTINUOUS
 62
    4
 10
550.15993761252514
 20
204.40749824337212
 11
679.6599376126353
 21
204.40749824337212
  0
TEXT
  8
_0-9__
 62
    3
 10
603.90993761258028
 20
205.40749824337212
 40
10
 41
0.8
 50
0
  1
129.5
  0
POINT
  8
_0-9__
 62
    4
 10
703.6599376126353
 20
239.22024480065173
  0
POINT
  8
_0-9__
 62
    4
 10
703.6599376126353
 20
300.39729839101295
  0
LINE
  8
_0-9__
  6
CONTINUOUS
 62
    4
 10
705.6599376126353
 20
239.22024480065173
 11
590.03616592977369
 21
239.22024480065173
  0
LINE
  8
_0-9__
  6
CONTINUOUS
 62
    4
 10
705.6599376126353
 20
300.39729839101295
 11
681.6599376126353
 21
300.39729839101295
  0
LINE
  8
_0-9__
  6
CONTINUOUS
 62
    4
 10
703.6599376126353
 20
239.22024480065173
 11
703.6599376126353
 21
300.39729839101295
  0
TEXT
  8
_0-9__
 62
    3
 10
702.6599376126353
 20
261.05877159583235
 40
10
 41
0.8
 50
90
  1
61.2
  0
POINT
  8
_0-9__
 62
    4
 10
703.6599376126353
 20
434.2202448006517
  0
LINE
  8
_0-9__
  6
CONTINUOUS
 62
    4
 10
705.6599376126353
 20
434.2202448006517
 11
676.1599376126353
 21
434.2202448006517
  0
LINE
  8
_0-9__
  6
CONTINUOUS
 62
    4
 10
703.6599376126353
 20
300.39729839101295
 11
703.6599376126353
 21
434.2202448006517
  0
TEXT
  8
_0-9__
 62
    3
 10
702.6599376126353
 20
356.30877159583235
 40
10
 41
0.8
 50
90
  1
133.8
  0
POINT
  8
_0-9__
 62
    4
 10
719.6599376126353
 20
239.22024480065173
  0
POINT
  8
_0-9__
 62
    4
 10
719.6599376126353
 20
434.2202448006517
  0
LINE
  8
_0-9__
  6
CONTINUOUS
 62
    4
 10
721.6599376126353
 20
239.22024480065173
 11
705.6599376126353
 21
239.22024480065173
  0
LINE
  8
_0-9__
  6
CONTINUOUS
 62
    4
 10
721.6599376126353
 20
434.2202448006517
 11
705.6599376126353
 21
434.2202448006517
  0
LINE
  8
_0-9__
  6
CONTINUOUS
 62
    4
 10
719.6599376126353
 20
239.22024480065173
 11
719.6599376126353
 21
434.2202448006517
  0
TEXT
  8
_0-9__
 62
    3
 10
718.6599376126353
 20
330.2202448006517
 40
10
 41
0.8
 50
90
  1
195
  0
POINT
  8
_0-9__
 62
    4
 10
569.6599376126353
 20
450.2202448006517
  0
POINT
  8
_0-9__
 62
    4
 10
679.6599376126353
 20
450.2202448006517
  0
LINE
  8
_0-9__
  6
CONTINUOUS
 62
    4
 10
569.6599376126353
 20
452.2202448006517
 11
569.6599376126353
 21
435.2202448006517
  0
LINE
  8
_0-9__
  6
CONTINUOUS
 62
    4
 10
679.6599376126353
 20
452.2202448006517
 11
679.6599376126353
 21
430.7202448006517
  0
LINE
  8
_0-9__
  6
CONTINUOUS
 62
    4
 10
569.6599376126353
 20
450.2202448006517
 11
679.6599376126353
 21
450.2202448006517
  0
TEXT
  8
_0-9__
 62
    3
 10
618.1599376126353
 20
451.2202448006517
 40
10
 41
0.8
 50
0
  1
110
  0
POINT
  8
_0-9__
 62
    4
 10
553.6599376126353
 20
419.2202448006517
  0
POINT
  8
_0-9__
 62
    4
 10
553.6599376126353
 20
434.2202448006517
  0
LINE
  8
_0-9__
  6
CONTINUOUS
 62
    4
 10
551.6599376126353
 20
419.2202448006517
 11
568.6599376126353
 21
419.2202448006517
  0
LINE
  8
_0-9__
  6
CONTINUOUS
 62
    4
 10
551.6599376126353
 20
434.2202448006517
 11
568.6599376126353
 21
434.2202448006517
  0
LINE
  8
_0-9__
  6
CONTINUOUS
 62
    4
 10
553.6599376126353
 20
419.2202448006517
 11
553.6599376126353
 21
434.2202448006517
  0
TEXT
  8
_0-9__
 62
    3
 10
552.6599376126353
 20
422.4702448006517
 40
10
 41
0.8
 50
90
  1
15
  0
POINT
  8
_0-9__
 62
    4
 10
534.15993761252514
 20
239.22024480065173
  0
POINT
  8
_0-9__
 62
    4
 10
534.15993761252514
 20
251.72024480065178
  0
LINE
  8
_0-9__
  6
CONTINUOUS
 62
    4
 10
532.15993761252514
 20
239.22024480065173
 11
549.15993761252514
 21
239.22024480065173
  0
LINE
  8
_0-9__
  6
CONTINUOUS
 62
    4
 10
532.15993761252514
 20
251.72024480065178
 11
549.15993761259506
 21
251.72024480065178
  0
LINE
  8
_0-9__
  6
CONTINUOUS
 62
    4
 10
534.15993761252514
 20
239.22024480065173
 11
534.15993761252514
 21
251.72024480065178
  0
TEXT
  8
_0-9__
 62
    3
 10
533.15993761252514
 20
236.72024480065176
 40
10
 41
0.8
 50
90
  1
12.5
  0
INSERT
  2
-002-M4TRUSHEAD_2_
  8
_0-b__
 10
207.59544173299275
 20
256.72024480075402
 41
-0.5
 42
0.5
 50
0
  0
INSERT
  2
-002-M4TRUSHEAD_2_
  8
_0-b__
 10
232.5954417329927
 20
245.9202448007519
 41
-0.5
 42
0.5
 50
0
  0
LINE
  8
_0-1_
  6
CENTER1
 62
    4
 10
232.5954417329927
 20
236.40749824337212
 11
232.5954417329927
 21
255.64432485623541
  0
LINE
  8
_0-1_
  6
CENTER1
 62
    4
 10
223.72169027907387
 20
245.9202448007519
 11
243.24563370705459
 21
245.9202448007519
  0
LINE
  8
_0-1_
  6
CENTER1
 62
    4
 10
207.59544173299275
 20
247.38138552596513
 11
207.59544173299275
 21
266.39195662077879
  0
LINE
  8
_0-1_
  6
CENTER1
 62
    4
 10
199.2332901491506
 20
256.72024480075402
 11
216.54731376986183
 21
256.72024480075402
  0
LINE
  8
_0-a__
  6
CONTINUOUS
 62
    4
 10
245.10247802734401
 20
468.68708801269497
 11
213.83581542968699
 21
468.68708801269497
  0
LINE
  8
_0-a__
  6
CONTINUOUS
 62
    4
 10
255.59544372558599
 20
431.72024536132801
 11
252.97967529296901
 21
437.12004089355503
  0
LINE
  8
_0-a__
  6
CONTINUOUS
 62
    4
 10
255.59544372558599
 20
431.72024536132801
 11
254.98426818847699
 21
437.68904113769497
  0
LINE
  8
_0-a__
  6
CONTINUOUS
 62
    4
 10
255.59544372558599
 20
431.72024536132801
 11
245.10247802734401
 21
468.68708801269497
  0
TEXT
  8
_0-a__
 62
    3
 10
216.54692077636699
 20
470.55375671386696
 40
10
 41
0.8
 50
0
  1
止水板
  0
LINE
  8
_0-a__
  6
CONTINUOUS
 62
    4
 10
289.59544372558599
 20
431.72024536132801
 11
290.31736755371099
 21
437.67665100097702
  0
LINE
  8
_0-a__
  6
CONTINUOUS
 62
    4
 10
289.59544372558599
 20
431.72024536132801
 11
292.31104278564499
 21
437.07052612304699
  0
LINE
  8
_0-a__
  6
CONTINUOUS
 62
    4
 10
347.59544372558588
 20
395.45168304443359
 11
349.69406127929687
 21
401.072700500488
  0
LINE
  8
_0-a__
  6
CONTINUOUS
 62
    4
 10
347.59544372558588
 20
395.45168304443359
 11
351.48999786376953
 21
400.01593780517601
  0
LINE
  8
_0-a__
  6
CONTINUOUS
 62
    4
 10
347.59544372558588
 20
395.45168304443359
 11
382.41958618164062
 21
454.63455200195301
  0
LINE
  8
_0-a__
  6
CONTINUOUS
 62
    4
 10
229.22151184082
 20
434.22024536132801
 11
225.05940246582
 21
438.54191589355503
  0
LINE
  8
_0-a__
  6
CONTINUOUS
 62
    4
 10
229.22151184082
 20
434.22024536132801
 11
226.788497924805
 21
439.70481872558599
  0
LINE
  8
_0-a__
  6
CONTINUOUS
 62
    4
 10
229.22151184082
 20
434.22024536132801
 11
217.43898010253901
 21
451.73960876464798
  0
TEXT
  8
_0-a__
 62
    3
 10
385.13069915771479
 20
456.501220703125
 40
10
 41
0.8
 50
0
  1
内ｶﾊﾞｰ
  0
LINE
  8
_0-a__
  6
CONTINUOUS
 62
    4
 10
382.41958618164062
 20
454.63455200195301
 11
414.85671886029587
 21
454.63455200195301
  0
LINE
  8
_0-a__
  6
CONTINUOUS
 62
    4
 10
217.43898010253901
 20
451.73960876464798
 11
185.23871351051321
 21
451.73960876464798
  0
TEXT
  8
_0-a__
 62
    3
 10
187.94981885719218
 20
453.60627746581997
 40
10
 41
0.8
 50
0
  1
外ｶﾊﾞｰ
  0
POINT
  8
_0-9__
 62
    4
 10
415.6354734542922
 20
241.72024480075197
  0
POINT
  8
_0-9__
 62
    4
 10
415.6354734542922
 20
431.72024480075197
  0
LINE
  8
_0-a__
  6
CONTINUOUS
 62
    4
 10
554.42018127441406
 20
367.37200927734381
 11
523.15351867675804
 21
367.37200927734381
  0
LINE
  8
_0-a__
  6
CONTINUOUS
 62
    4
 10
585.35993957519497
 20
343.57812881469732
 11
580.04086303710903
 21
346.35434722900391
  0
LINE
  8
_0-a__
  6
CONTINUOUS
 62
    4
 10
585.35993957519497
 20
343.57812881469732
 11
581.31115722656295
 21
348.00615310668951
  0
LINE
  8
_0-a__
  6
CONTINUOUS
 62
    4
 10
585.35993957519497
 20
343.57812881469732
 11
554.42018127441406
 21
367.37200927734381
  0
TEXT
  8
_0-a__
 62
    3
 10
525.86463165283203
 20
369.23867797851562
 40
10
 41
0.8
 50
0
  1
内ｶﾊﾞｰ
  0
LINE
  8
_0-a__
  6
CONTINUOUS
 62
    4
 10
580.42744445800804
 20
475.27447509765602
 11
549.16078186035202
 21
475.27447509765602
  0
LINE
  8
_0-a__
  6
CONTINUOUS
 62
    4
 10
598.134521484375
 20
434.22024536132801
 11
594.83767700195301
 21
439.23330688476597
  0
LINE
  8
_0-a__
  6
CONTINUOUS
 62
    4
 10
598.134521484375
 20
434.22024536132801
 11
596.75106811523403
 21
440.05857849121099
  0
LINE
  8
_0-a__
  6
CONTINUOUS
 62
    4
 10
598.134521484375
 20
434.22024536132801
 11
580.42744445800804
 21
475.27447509765602
  0
TEXT
  8
_0-a__
 62
    3
 10
551.87188720703102
 20
477.14114379882801
 40
10
 41
0.8
 50
0
  1
外ｶﾊﾞｰ
  0
LINE
  8
_0-a__
  6
CONTINUOUS
 62
    4
 10
661.33930969238304
 20
475.04731750488304
 11
692.60598754882801
 21
475.04731750488304
  0
LINE
  8
_0-a__
  6
CONTINUOUS
 62
    4
 10
637.41600036621094
 20
414.90676879882801
 11
638.63192749023403
 21
420.78227233886702
  0
LINE
  8
_0-a__
  6
CONTINUOUS
 62
    4
 10
637.41600036621094
 20
414.90676879882801
 11
640.56813049316406
 21
420.01206970214798
  0
LINE
  8
_0-a__
  6
CONTINUOUS
 62
    4
 10
637.41600036621094
 20
414.90676879882801
 11
661.33930969238304
 21
475.04731750488304
  0
TEXT
  8
_0-a__
 62
    3
 10
664.05041503906295
 20
476.91398620605503
 40
10
 41
0.8
 50
0
  1
止水板
  0
LINE
  8
_0-a__
  6
CONTINUOUS
 62
    4
 10
524.78774261474598
 20
202.26715087890619
 11
480.02107620239258
 21
202.26715087890619
  0
LINE
  8
_0-a__
  6
CONTINUOUS
 62
    4
 10
547.93511199951195
 20
243.34879302978521
 11
545.94224548339798
 21
237.6894226074219
  0
LINE
  8
_0-a__
  6
CONTINUOUS
 62
    4
 10
547.93511199951195
 20
243.34879302978521
 11
544.12680816650402
 21
238.71232604980469
  0
LINE
  8
_0-a__
  6
CONTINUOUS
 62
    4
 10
547.93511199951195
 20
243.34879302978521
 11
524.78774261474598
 21
202.26715087890619
  0
TEXT
  8
_0-a__
 62
    3
 10
482.73218536376953
 20
190.40048217773401
 40
10
 41
0.8
 50
0
  1
4x16(SUS)
  0
TEXT
  8
_0-a__
 62
    3
 10
482.73218536376953
 20
204.13381195068359
 40
10
 41
0.8
 50
0
  1
ﾅﾍﾞﾃｸｽﾋﾞｽ
  0
LINE
  8
_0-a__
  6
CONTINUOUS
 62
    4
 10
531.90622898220715
 20
298.93264630028028
 11
487.13956256985381
 21
298.93264630028028
  0
TEXT
  8
_0-a__
 62
    3
 10
489.8506717312307
 20
287.06597759910807
 40
10
 41
0.8
 50
0
  1
4x16(SUS)
  0
TEXT
  8
_0-a__
 62
    3
 10
489.8506717312307
 20
300.79930737205768
 40
10
 41
0.8
 50
0
  1
ﾅﾍﾞﾃｸｽﾋﾞｽ
  0
LINE
  8
_0-a__
  6
CONTINUOUS
 62
    4
 10
553.2979113865382
 20
259.63930960553296
 11
531.90622898220715
 21
298.93264630028028
  0
LINE
  8
_0-a__
  6
CONTINUOUS
 62
    4
 10
553.2979113865382
 20
259.63930960553296
 11
549.55755533583067
 21
264.33076317707508
  0
LINE
  8
_0-a__
  6
CONTINUOUS
 62
    4
 10
553.2979113865382
 20
259.63930960553296
 11
551.38769802952095
 21
265.32711102002281
  0
LINE
  8
_0-9__
  6
CONTINUOUS
 62
    4
 10
415.6354734542922
 20
241.72024480075197
 11
415.6354734542922
 21
431.72024480075197
  0
TEXT
  8
_0-9__
 62
    3
 10
414.6354734542922
 20
330.22024480075197
 40
10
 41
0.8
 50
90
  1
190
  0
LINE
  8
_0-a__
  6
CONTINUOUS
 62
    4
 10
278.93489074706997
 20
492.29278564453102
 11
355.20156097412109
 21
492.29278564453102
  0
LINE
  8
_0-a__
  6
CONTINUOUS
 62
    4
 10
260.68083190918003
 20
431.11994934081997
 11
261.37203979492199
 21
437.08000183105503
  0
LINE
  8
_0-a__
  6
CONTINUOUS
 62
    4
 10
260.68083190918003
 20
431.11994934081997
 11
263.36880493164097
 21
436.48416137695301
  0
LINE
  8
_0-a__
  6
CONTINUOUS
 62
    4
 10
260.68083190918003
 20
431.11994934081997
 11
278.93489074706997
 21
492.29278564453102
  0
TEXT
  8
_0-a__
 62
    3
 10
281.64599609375
 20
480.42611694335903
 40
10
 41
0.8
 50
0
  1
4x16ｶﾞｲﾄﾞ付(SUS)
  0
TEXT
  8
_0-a__
 62
    3
 10
281.64599609375
 20
494.15945434570301
 40
10
 41
0.8
 50
0
  1
止水ﾘﾝｸﾞ付ﾅﾍﾞﾋﾞｽ
  0
TEXT
  8
_0-a__
 62
    3
 10
300.83902450953781
 20
461.65192791591016
 40
10
 41
0.8
 50
0
  1
止水板
  0
LINE
  8
_0-a__
  6
CONTINUOUS
 62
    4
 10
298.12791153346285
 20
459.78525921473818
 11
329.39458176051403
 21
459.78525921473818
  0
LINE
  8
_0-a__
  6
CONTINUOUS
 62
    4
 10
289.59544372558599
 20
431.72024536132801
 11
298.12791153346285
 21
459.78525921473818
  0
LINE
  8
_0-a__
  6
CONTINUOUS
 62
    4
 10
703.27943708239616
 20
459.29685134226645
 11
779.54610730944728
 21
459.29685134226645
  0
TEXT
  8
_0-a__
 62
    3
 10
705.99054242907619
 20
447.43018264109446
 40
10
 41
0.8
 50
0
  1
4x16ｶﾞｲﾄﾞ付(SUS)
  0
TEXT
  8
_0-a__
 62
    3
 10
705.99054242907619
 20
461.16352004343844
 40
10
 41
0.8
 50
0
  1
止水ﾘﾝｸﾞ付ﾅﾍﾞﾋﾞｽ
  0
LINE
  8
_0-a__
  6
CONTINUOUS
 62
    4
 10
675.97703412561214
 20
430.65157734172772
 11
703.27943708239616
 21
459.29685134226645
  0
LINE
  8
_0-a__
  6
CONTINUOUS
 62
    4
 10
675.97703412561214
 20
430.65157734172772
 11
679.2995667781222
 21
435.64765347935861
  0
LINE
  8
_0-a__
  6
CONTINUOUS
 62
    4
 10
675.97703412561214
 20
430.65157734172772
 11
680.80795221815447
 21
434.20998012712835
  0
LINE
  8
_0-7__
  6
CONTINUOUS
 62
  136
 10
452.88101303918938
 20
306.82528763025346
 11
347.59544173299287
 21
306.82528763025346
  0
LINE
  8
_0-7__
  6
CONTINUOUS
 62
  136
 10
452.88101303918938
 20
300.74362777468775
 11
347.59544173299292
 21
300.74362777468775
  0
LINE
  8
_0-7__
  6
CONTINUOUS
 62
  136
 10
452.88101303918938
 20
303.53726762934241
 11
347.59544173299292
 21
303.53726762934241
  0
LINE
  8
_0-7__
  6
CONTINUOUS
 62
  136
 10
452.88101303918938
 20
305.33020237763117
 11
347.59544173299292
 21
305.33020237763117
  0
LINE
  8
_0-7__
  6
CONTINUOUS
 62
  136
 10
92.309870426796294
 20
306.82528763025334
 11
197.59544173299275
 21
306.82528763025334
  0
LINE
  8
_0-7__
  6
CONTINUOUS
 62
  136
 10
92.309870426796294
 20
300.74362777468758
 11
197.59544173299273
 21
300.74362777468758
  0
LINE
  8
_0-7__
  6
CONTINUOUS
 62
  136
 10
92.309870426796294
 20
303.53726762934224
 11
197.59544173299273
 21
303.53726762934224
  0
LINE
  8
_0-7__
  6
CONTINUOUS
 62
  136
 10
92.309870426796294
 20
305.330202377631
 11
197.59544173299273
 21
305.330202377631
  0
LINE
  8
_0-2__
  6
CONTINUOUS
 62
    7
 10
223.05698019453143
 20
241.720244800752
 11
92.309870426796294
 21
241.720244800752
  0
LINE
  8
_0-2__
  6
CONTINUOUS
 62
    7
 10
223.05698019453143
 20
249.72024480075189
 11
92.309870426796294
 21
249.72024480075189
  0
LINE
  8
_0-2__
  6
CONTINUOUS
 62
    7
 10
197.59544173299275
 20
261.72024480075186
 11
92.309870426796294
 21
261.72024480075186
  0
LINE
  8
_0-2__
  6
CONTINUOUS
 62
    7
 10
223.05698019453143
 20
431.72024480075197
 11
92.309870426796294
 21
431.72024480075197
  0
LINE
  8
_0-2__
  6
CONTINUOUS
 62
    7
 10
223.05698019453143
 20
421.72024480075197
 11
92.309870426796294
 21
421.72024480075197
  0
LINE
  8
_0-2__
  6
CONTINUOUS
 62
    7
 10
197.59544173299275
 20
414.72024480075186
 11
92.309870426796294
 21
414.72024480075186
  0
LINE
  8
_0-3__
  6
DASHED1
 62
    3
 10
223.05698019453143
 20
429.72024480075197
 11
92.309870426796294
 21
429.72024480075197
  0
LINE
  8
_0-3__
  6
DASHED1
 62
    3
 10
92.309870426796294
 20
243.72024480075197
 11
255.59544173299275
 21
243.72024480075197
  0
LINE
  8
_0-1_
  6
CENTER1
 62
    4
 10
452.88101303918938
 20
336.72024480075237
 11
92.309870426796294
 21
336.72024480075237
  0
TEXT
  8
_0-a__
 62
    3
 10
223.60745799323018
 20
32.5
 40
10
 41
0.8
 50
0
  1
エキスパンションジョイントＡタイプ
  0
TEXT
  8
_0-a__
 62
    3
 10
681.84231299323017
 20
32.5
 40
10
 41
0.8
 50
0
  1
EJA-NT12
  0
LINE
  8
_0-1_
  6
CENTER1
 62
    4
 10
535.62951334379909
 20
336.72024480075237
 11
688.55886970172685
 21
336.72024480075237
  0
POINT
  8
_0-9__
 62
    4
 10
677.6599376126353
 20
386.79872533153548
  0
POINT
  8
_0-9__
 62
    4
 10
679.6599376126353
 20
386.79872533153548
  0
POINT
  8
_0-9__
 62
    4
 10
585.35993885964422
 20
386.79872533153548
  0
POINT
  8
_0-9__
 62
    4
 10
587.15993885964417
 20
386.79872533153548
  0
LINE
  8
_0-9__
  6
CONTINUOUS
 62
    4
 10
585.35993885964422
 20
386.79872533153548
 11
587.15993885964417
 21
386.79872533153548
  0
TEXT
  8
_0-9__
 62
    3
 10
568.85912930633276
 20
387.79872533153548
 40
10
 41
0.8
 50
0
  1
1.8
  0
LINE
  8
_0-9__
  6
CONTINUOUS
 62
    4
 10
677.6599376126353
 20
386.79872533153548
 11
679.6599376126353
 21
386.79872533153548
  0
TEXT
  8
_0-9__
 62
    3
 10
682.35804407678984
 20
387.79872533153548
 40
10
 41
0.8
 50
0
  1
2
  0
POINT
  8
_0-9__
 62
    4
 10
255.5954417329927
 20
220.40749824337212
  0
POINT
  8
_0-9__
 62
    4
 10
257.59544173299281
 20
220.40749824337212
  0
LINE
  8
_0-9__
  6
CONTINUOUS
 62
    4
 10
255.5954417329927
 20
218.40749824337212
 11
255.5954417329927
 21
239.72024480075197
  0
POINT
  8
_0-9__
 62
    4
 10
287.59544173299298
 20
220.40749824337212
  0
POINT
  8
_0-9__
 62
    4
 10
289.59544173299298
 20
220.40749824337212
  0
LINE
  8
_0-9__
  6
CONTINUOUS
 62
    4
 10
289.59544173299298
 20
218.40749824337212
 11
289.59544173299298
 21
239.72024480075197
  0
LINE
  8
_0-9__
  6
CONTINUOUS
 62
    4
 10
287.59544173299298
 20
220.40749824337212
 11
289.59544173299298
 21
220.40749824337212
  0
TEXT
  8
_0-9__
 62
    3
 10
292.47992988921806
 20
221.40749824337212
 40
10
 41
0.8
 50
0
  1
2
  0
LINE
  8
_0-9__
  6
CONTINUOUS
 62
    4
 10
255.5954417329927
 20
220.40749824337212
 11
257.59544173299281
 21
220.40749824337212
  0
TEXT
  8
_0-9__
 62
    3
 10
248.62442432456697
 20
221.40749824337212
 40
10
 41
0.8
 50
0
  1
2
  0
LINE
  8
_0-2__
  6
CONTINUOUS
 62
    7
 10
270.28571428571428
 20
166.45054945054946
 11
270.28571428571428
 21
177.45054945054946
  0
LINE
  8
_0-2__
  6
CONTINUOUS
 62
    7
 10
270.28571428571428
 20
166.45054945054946
 11
227.28571428571428
 21
166.45054945054946
  0
LINE
  8
_0-2__
  6
CONTINUOUS
 62
    7
 10
227.28571428571428
 20
166.45054945054946
 11
242.28571428571428
 21
163.45054945054946
  0
LINE
  8
_0-2__
  6
CONTINUOUS
 62
    7
 10
242.28571428571428
 20
163.45054945054946
 11
245.28571428571428
 21
168.05054945054945
  0
TEXT
  8
_0-a__
 62
    3
 10
282.72051975468247
 20
163.48871602797766
 40
11
 41
0.8181818181818182
 50
0
  1
Ａ
  0
TEXT
  8
_0-a__
 62
    3
 10
598.10675039246462
 20
172.97802197802196
 40
11
 41
0.8181818181818182
 50
0
  1
Ａ断面図
  0
LINE
  8
_0-2__
  6
CONTINUOUS
 62
    7
 10
281.1205197546825
 20
161.88871602797767
 11
293.32051975468244
 21
161.88871602797767
  0
LINE
  8
_0-2__
  6
CONTINUOUS
 62
    7
 10
293.32051975468244
 20
161.88871602797767
 11
293.32051975468244
 21
176.08871602797765
  0
LINE
  8
_0-2__
  6
CONTINUOUS
 62
    7
 10
293.32051975468244
 20
176.08871602797765
 11
281.1205197546825
 21
176.08871602797765
  0
LINE
  8
_0-2__
  6
CONTINUOUS
 62
    7
 10
281.1205197546825
 20
176.08871602797765
 11
281.1205197546825
 21
161.88871602797767
  0
LINE
  8
_0-2__
  6
CONTINUOUS
 62
    7
 10
596.50651975468247
 20
171.37771602797764
 11
638.7065197546824
 21
171.37771602797764
  0
LINE
  8
_0-2__
  6
CONTINUOUS
 62
    7
 10
638.7065197546824
 20
171.37771602797764
 11
638.7065197546824
 21
185.57771602797766
  0
LINE
  8
_0-2__
  6
CONTINUOUS
 62
    7
 10
638.7065197546824
 20
185.57771602797766
 11
596.50651975468247
 21
185.57771602797766
  0
LINE
  8
_0-2__
  6
CONTINUOUS
 62
    7
 10
596.50651975468247
 20
185.57771602797766
 11
596.50651975468247
 21
171.37771602797764
  0
INSERT
  2
-005-TX4X16O
  8
_0-b__
 10
562.02358579390295
 20
256.71650715979627
 41
0.5
 42
0.5
 50
90
  0
INSERT
  2
-005-TX4X16O
  8
_0-b__
 10
556.82358579378376
 20
245.91650715979426
 41
0.5
 42
0.5
 50
90
  0
INSERT
  2
-006-GT4X16K
  8
_0-b__
 10
251.66854656985475
 20
428.12024420047271
 41
0.5
 42
0.5
 50
270
  0
INSERT
  2
-006-GT4X16K
  8
_0-b__
 10
251.66854656985475
 20
417.92024420047755
 41
0.5
 42
0.5
 50
270
  0
INSERT
  2
-006-GT4X16K
  8
_0-b__
 10
251.66854656985458
 20
303.62528702987447
 41
0.5
 42
0.5
 50
270
  0
INSERT
  2
-006-GT4X16K
  8
_0-b__
 10
251.66854656985458
 20
255.52024420047294
 41
0.5
 42
0.5
 50
270
  0
INSERT
  2
-006-GT4X16K
  8
_0-b__
 10
293.52233689613104
 20
255.52024540123094
 41
0.5
 42
0.5
 50
90
  0
INSERT
  2
-006-GT4X16K
  8
_0-b__
 10
293.52233689613104
 20
303.62528823063241
 41
0.5
 42
0.5
 50
90
  0
INSERT
  2
-006-GT4X16K
  8
_0-b__
 10
293.52233689613104
 20
417.92024540123555
 41
0.5
 42
0.5
 50
90
  0
INSERT
  2
-006-GT4X16K
  8
_0-b__
 10
293.52233689613104
 20
428.1202454012307
 41
0.5
 42
0.5
 50
90
  0
ENDSEC
  0
EOF
