  0
SECTION
  2
HEADER
  9
$ACADVER
  1
AC1009
  9
$INSBASE
 10
0
 20
0
 30
0
  9
$EXTMIN
 10
0
 20
0
  9
$EXTMAX
 10
840
 20
594
  9
$LIMMIN
 10
0
 20
0
  9
$LIMMAX
 10
840
 20
594
  9
$LTSCALE
 40
2
  0
ENDSEC
  0
SECTION
  2
TABLES
  0
TABLE
  2
LTYPE
 70
     9
  0
LTYPE
  2
CONTINUOUS
 70
    64
  3
実線
 72
    65
 73
     0
 40
0.0
  0
LTYPE
  2
DASHED1
 70
    64
  3
--  --  --  --  --  --  --  --  
 72
    65
 73
     2
 40
2.5
 49
1.25
 49
-1.25
  0
LTYPE
  2
DASHED2
 70
    64
  3
----    ----    ----    ----    
 72
    65
 73
     2
 40
5.0
 49
2.5
 49
-2.5
  0
LTYPE
  2
DASHED3
 70
    64
  3
------  ------  ------  ------  
 72
    65
 73
     2
 40
5.0
 49
3.75
 49
-1.25
  0
LTYPE
  2
CENTER1
 70
    64
  3
----- - ----- - ----- - ----- - 
 72
    65
 73
     4
 40
10.0
 49
6.25
 49
-1.25
 49
1.25
 49
-1.25
  0
LTYPE
  2
CENTER2
 70
    64
  3
----------  --  ----------  --  
 72
    65
 73
     4
 40
20.0
 49
12.5
 49
-2.5
 49
2.5
 49
-2.5
  0
LTYPE
  2
PHANTOM1
 70
    64
  3
--- - - --- - - --- - - --- - - 
 72
    65
 73
     6
 40
10.0
 49
3.25
 49
-1.25
 49
1.25
 49
-1.25
 49
1.25
 49
-1.25
  0
LTYPE
  2
PHANTOM2
 70
    64
  3
--------  -  -  --------  -  -  
 72
    65
 73
     6
 40
20.0
 49
10.0
 49
-2.5
 49
1.25
 49
-2.5
 49
1.25
 49
-2.5
  0
LTYPE
  2
DOT
 70
    64
  3
-   -   -   -   -   -   -   -   
 72
    65
 73
     2
 40
2.5
 49
0.625
 49
-1.875
  0
LTYPE
  2
DUMMY
 70
    64
  3
ダミー
 72
    65
 73
     0
 40
0.0
  0
LTYPE
  2
RAND1
 70
    64
  3
ランダム線1
 72
    65
 73
     4
 40
10.0
 49
1.0
 49
-2.0
 49
3.0
 49
-4.0
  0
LTYPE
  2
RAND2
 70
    64
  3
ランダム線2
 72
    65
 73
     4
 40
14.0
 49
2.0
 49
-3.0
 49
4.0
 49
-5.0
  0
LTYPE
  2
RAND3
 70
    64
  3
ランダム線3
 72
    65
 73
     4
 40
18.0
 49
3.0
 49
-4.0
 49
5.0
 49
-6.0
  0
LTYPE
  2
RAND4
 70
    64
  3
ランダム線4
 72
    65
 73
     4
 40
22.0
 49
4.0
 49
-5.0
 49
6.0
 49
-7.0
  0
LTYPE
  2
RAND5
 70
    64
  3
ランダム線5
 72
    65
 73
     4
 40
26.0
 49
5.0
 49
-6.0
 49
7.0
 49
-8.0
  0
LTYPE
  2
LONG1
 70
    64
  3
----------  --  ----------  --  
 72
    65
 73
     4
 40
40.0
 49
32.5
 49
-2.5
 49
2.5
 49
-2.5
  0
LTYPE
  2
LONG2
 70
    64
  3
--------  -  -  --------  -  -  
 72
    65
 73
     6
 40
40.0
 49
30.0
 49
-2.5
 49
1.25
 49
-2.5
 49
1.25
 49
-2.5
  0
LTYPE
  2
LONG3
 70
    64
  3
+++++++++++++++..+++++++++++++++
 72
    65
 73
     2
 40
40.0
 49
37.5
 49
-2.5
  0
LTYPE
  2
LONG4
 70
    64
  3
+++++++++++++++..+++++++++++++++
 72
    65
 73
     2
 40
80.0
 49
75.0
 49
-5.0
  0
LTYPE
  2
LONG5
 70
    64
  3
----------  --  ----------  --  
 72
    65
 73
     4
 40
60.0
 49
37.5
 49
-7.5
 49
7.5
 49
-7.5
  0
LTYPE
  2
dashed
 70
   64
  3
-------   -------------   ------
 72
   65
 73
    2
 40
7.5
 49
6
 49
-1.5
  0
LTYPE
  2
dashed_spaced
 70
   64
  3
----        --------        ----
 72
   65
 73
    2
 40
12
 49
6
 49
-6
  0
LTYPE
  2
long_dashed_dotted
 70
   64
  3
------------- --- --------------
 72
   65
 73
    4
 40
15.25
 49
12
 49
-1.5
 49
0.25
 49
-1.5
  0
LTYPE
  2
long_dashed_double-dotted
 70
   64
  3
----------- --- --- ------------
 72
   65
 73
    6
 40
17
 49
12
 49
-1.5
 49
0.25
 49
-1.5
 49
0.25
 49
-1.5
  0
LTYPE
  2
long_dashed_triplicate-dotted
 70
   64
  3
--------- --- --- --- ----------
 72
   65
 73
    8
 40
18.75
 49
12
 49
-1.5
 49
0.25
 49
-1.5
 49
0.25
 49
-1.5
 49
0.25
 49
-1.5
  0
LTYPE
  2
dotted
 70
   64
  3
   -       -       -       -    
 72
   65
 73
    2
 40
1.75
 49
0.25
 49
-1.5
  0
LTYPE
  2
chain
 70
   64
  3
-------------- -- --------------
 72
   65
 73
    4
 40
18.5
 49
12
 49
-1.5
 49
3.5
 49
-1.5
  0
LTYPE
  2
chain_double_dash
 70
   64
  3
------------ -- -- -------------
 72
   65
 73
    6
 40
23.5
 49
12
 49
-1.5
 49
3.5
 49
-1.5
 49
3.5
 49
-1.5
  0
LTYPE
  2
dashed_dotted
 70
   64
  3
-----------     -     ----------
 72
   65
 73
    4
 40
9.25
 49
6
 49
-1.5
 49
0.25
 49
-1.5
  0
LTYPE
  2
double-dashed_dotted
 70
   64
  3
------   -----------   -   -----
 72
   65
 73
    6
 40
16.75
 49
6
 49
-1.5
 49
6
 49
-1.5
 49
0.25
 49
-1.5
  0
LTYPE
  2
dashed_double-dotted
 70
   64
  3
---------    -    -    ---------
 72
   65
 73
    6
 40
11
 49
6
 49
-1.5
 49
0.25
 49
-1.5
 49
0.25
 49
-1.5
  0
LTYPE
  2
double-dashed_double-dotted
 70
   64
  3
-----   ---------   -   -   ----
 72
   65
 73
    8
 40
18.5
 49
6
 49
-1.5
 49
6
 49
-1.5
 49
0.25
 49
-1.5
 49
0.25
 49
-1.5
  0
LTYPE
  2
dashed_triplicate-dotted
 70
   64
  3
-------    -    -    -    ------
 72
   65
 73
    8
 40
12.75
 49
6
 49
-1.5
 49
0.25
 49
-1.5
 49
0.25
 49
-1.5
 49
0.25
 49
-1.5
  0
LTYPE
  2
double-dashed_triplicate-dotted
 70
   64
  3
-----  ---------  -  -  -  -----
 72
   65
 73
   10
 40
20.25
 49
6
 49
-1.5
 49
6
 49
-1.5
 49
0.25
 49
-1.5
 49
0.25
 49
-1.5
 49
0.25
 49
-1.5
  0
LTYPE
  2
undefined
 70
   64
  3
--------------------------------
 72
   65
 73
    0
 40
0
  0
ENDTAB
  0
TABLE
  2
STYLE
  5
3
100
AcDbSymbolTable
 70
     1
  0
STYLE
  5
10
100
AcDbSymbolTableRecord
100
AcDbTextStyleTableRecord
  2
STANDARD
 70
     0
 40
0.0
 41
1.0
 50
0.0
 71
     0
 42
0.2
  3
txt
  4
bigfont.shx
  0
STYLE
  5
26
100
AcDbSymbolTableRecord
100
AcDbTextStyleTableRecord
  2
TATEGAKI
 70
    68
 40
0.0
 41
1.0
 50
0.0
 71
     0
 42
1.0
  3
txt
  4
bigfont.shx
  0
ENDTAB
  0
TABLE
  2
LAYER
 70
   11
  0
LAYER
  2
_0-1_
 70
   64
 62
    7
  6
CONTINUOUS
  0
LAYER
  2
_0-2__
 70
   64
 62
    7
  6
CONTINUOUS
  0
LAYER
  2
_0-3__
 70
   64
 62
    7
  6
CONTINUOUS
  0
LAYER
  2
_0-7__
 70
   64
 62
    7
  6
CONTINUOUS
  0
LAYER
  2
_0-8__
 70
   64
 62
    7
  6
CONTINUOUS
  0
LAYER
  2
_0-9__
 70
   64
 62
    7
  6
CONTINUOUS
  0
LAYER
  2
_0-a__
 70
   64
 62
    7
  6
CONTINUOUS
  0
LAYER
  2
_0-b__
 70
   64
 62
    7
  6
CONTINUOUS
  0
LAYER
  2
_f-0_
 70
   64
 62
    7
  6
CONTINUOUS
  0
LAYER
  2
_f-a__
 70
   64
 62
    7
  6
CONTINUOUS
  0
LAYER
  2
ADD_LINE
 70
   64
 62
    7
  6
CONTINUOUS
  0
ENDTAB
  0
ENDSEC
  0
SECTION
  2
BLOCKS
  0
BLOCK
  2
-000-IN-12-12N
 70
   64
 10
0
 20
0
 30
0
  0
ARC
  8
_0-9__
  6
CONTINUOUS
 62
    7
 10
62.79402728311458
 20
-24.922021270837092
 40
15.599999999999936
 50
107.35249046075282
 51
162.64750962037928
  0
ARC
  8
_0-1_
  6
CONTINUOUS
 62
    7
 10
59.741336089657118
 20
-11.258892914659441
 40
2
 50
282.59448895421781
 51
0
  0
ARC
  8
_0-9__
  6
CONTINUOUS
 62
    7
 10
62.79402728311458
 20
-24.922021270837092
 40
11.999999999999936
 50
102.59448895421799
 51
167.40551113419892
  0
ARC
  8
_0-1_
  6
CONTINUOUS
 62
    7
 10
49.130898922226145
 20
-21.869330098464104
 40
2
 50
270
 51
347.40551113419883
  0
ARC
  8
_0-9__
  6
CONTINUOUS
 62
    7
 10
-124.88353504086618
 20
-23.469330098464013
 40
0.4
 50
120.00000000000185
 51
270
  0
LINE
  8
_0-9__
  6
CONTINUOUS
 62
    7
 10
-125.08353504086611
 20
-23.122919936950382
 11
-120.14097245664735
 21
-20.269330098464195
  0
LINE
  8
_0-9__
  6
CONTINUOUS
 62
    7
 10
-124.88353504086618
 20
-23.869330098464104
 11
49.130898922226145
 21
-23.869330098464104
  0
LINE
  8
_0-9__
  6
CONTINUOUS
 62
    7
 10
47.653642274701149
 20
138.13016204058042
 11
58.141336089657095
 21
138.13066800702947
  0
LINE
  8
_0-9__
  6
CONTINUOUS
 62
    7
 10
47.653642274701149
 20
138.13016204058042
 11
47.653642274701149
 21
141.73066689320882
  0
LINE
  8
_0-9__
  6
CONTINUOUS
 62
    7
 10
59.741239601981299
 20
141.73125004529592
 11
47.653642274701149
 21
141.73066689320882
  0
ARC
  8
_0-9__
  6
CONTINUOUS
 62
    7
 10
59.741336089657118
 20
139.73125004762332
 40
2
 50
0
 51
90.00276416830151
  0
LINE
  8
_0-9__
  6
CONTINUOUS
 62
    7
 10
58.141336089657095
 20
138.13066800702947
 11
58.141336089657095
 21
-10.032009025767536
  0
LINE
  8
_0-9__
  6
CONTINUOUS
 62
    7
 10
61.741336089657118
 20
139.73125004762332
 11
61.741336089657118
 21
-11.258892914659441
  0
LINE
  8
_0-9__
  6
CONTINUOUS
 62
    7
 10
-120.14097245664735
 20
-20.269330098464195
 11
-72.095984968543291
 21
-20.269330098464195
  0
LINE
  8
_0-9__
  6
CONTINUOUS
 62
    7
 10
-32.095984968543299
 20
-20.269330098464195
 11
7.9040150314567015
 21
-20.269330098464195
  0
LINE
  8
_0-1_
  6
CONTINUOUS
 62
    7
 10
40.692014873114481
 20
-21.395691277888545
 11
42.616015189798922
 21
-20.342968919039762
  0
LINE
  8
_0-1_
  6
CONTINUOUS
 62
    7
 10
40.116015070089382
 20
-21.395691212389139
 11
38.192014992824092
 21
-20.342968984539169
  0
ARC
  8
_0-1_
  6
CONTINUOUS
 62
    7
 10
40.404015031456716
 20
-20.869330098464189
 40
0.599999999999909
 50
241.31460219114322
 51
298.68540201411537
  0
ARC
  8
_0-1_
  6
CONTINUOUS
 62
    7
 10
37.904015031456716
 20
-20.869330098464189
 40
0.5999999999999943
 50
61.314597985882486
 51
90
  0
ARC
  8
_0-1_
  6
CONTINUOUS
 62
    7
 10
42.904015031456716
 20
-20.869330098464189
 40
0.5999999999999943
 50
90
 51
118.6854020141145
  0
LINE
  8
_0-1_
  6
CONTINUOUS
 62
    7
 10
45.116015189798951
 20
-21.395691277888545
 11
43.192014873114509
 21
-20.342968919039762
  0
LINE
  8
_0-1_
  6
CONTINUOUS
 62
    7
 10
45.692014992824049
 20
-21.395691212389139
 11
47.61601507008934
 21
-20.342968984539169
  0
ARC
  8
_0-1_
  6
CONTINUOUS
 62
    7
 10
45.404015031456716
 20
-20.869330098464189
 40
0.599999999999909
 50
241.31459798588466
 51
298.68539780885675
  0
ARC
  8
_0-1_
  6
CONTINUOUS
 62
    7
 10
47.904015031456716
 20
-20.869330098464189
 40
0.5999999999999943
 50
90
 51
118.68540201411753
  0
ARC
  8
_0-1_
  6
CONTINUOUS
 62
    7
 10
42.904015031456716
 20
-20.869330098464189
 40
0.5999999999999943
 50
61.314597985885506
 51
90
  0
LINE
  8
_0-1_
  6
CONTINUOUS
 62
    7
 10
35.692014873114481
 20
-21.395691277888545
 11
37.616015189798922
 21
-20.342968919039762
  0
LINE
  8
_0-1_
  6
CONTINUOUS
 62
    7
 10
35.116015070089382
 20
-21.395691212389139
 11
33.192014992824092
 21
-20.342968984539169
  0
ARC
  8
_0-1_
  6
CONTINUOUS
 62
    7
 10
35.404015031456716
 20
-20.869330098464189
 40
0.599999999999909
 50
241.31460219114322
 51
298.68540201411537
  0
ARC
  8
_0-1_
  6
CONTINUOUS
 62
    7
 10
32.904015031456716
 20
-20.869330098464189
 40
0.5999999999999943
 50
61.314597985882486
 51
90
  0
ARC
  8
_0-1_
  6
CONTINUOUS
 62
    7
 10
37.904015031456716
 20
-20.869330098464189
 40
0.5999999999999943
 50
90
 51
118.6854020141145
  0
LINE
  8
_0-1_
  6
CONTINUOUS
 62
    7
 10
30.692014873114481
 20
-21.395691277888545
 11
32.616015189798922
 21
-20.342968919039762
  0
LINE
  8
_0-1_
  6
CONTINUOUS
 62
    7
 10
30.116015070089382
 20
-21.395691212389139
 11
28.192014992824092
 21
-20.342968984539169
  0
ARC
  8
_0-1_
  6
CONTINUOUS
 62
    7
 10
30.404015031456716
 20
-20.869330098464189
 40
0.599999999999909
 50
241.31460219114322
 51
298.68540201411537
  0
ARC
  8
_0-1_
  6
CONTINUOUS
 62
    7
 10
27.904015031456716
 20
-20.869330098464189
 40
0.5999999999999943
 50
61.314597985882486
 51
90
  0
ARC
  8
_0-1_
  6
CONTINUOUS
 62
    7
 10
32.904015031456716
 20
-20.869330098464189
 40
0.5999999999999943
 50
90
 51
118.6854020141145
  0
LINE
  8
_0-1_
  6
CONTINUOUS
 62
    7
 10
25.692014873114481
 20
-21.395691277888545
 11
27.616015189798922
 21
-20.342968919039762
  0
LINE
  8
_0-1_
  6
CONTINUOUS
 62
    7
 10
25.116015070089382
 20
-21.395691212389139
 11
23.192014992824092
 21
-20.342968984539169
  0
ARC
  8
_0-1_
  6
CONTINUOUS
 62
    7
 10
25.404015031456716
 20
-20.869330098464189
 40
0.599999999999909
 50
241.31460219114322
 51
298.68540201411537
  0
ARC
  8
_0-1_
  6
CONTINUOUS
 62
    7
 10
22.904015031456716
 20
-20.869330098464189
 40
0.5999999999999943
 50
61.314597985882486
 51
90
  0
ARC
  8
_0-1_
  6
CONTINUOUS
 62
    7
 10
27.904015031456716
 20
-20.869330098464189
 40
0.5999999999999943
 50
90
 51
118.6854020141145
  0
LINE
  8
_0-1_
  6
CONTINUOUS
 62
    7
 10
20.692014873114481
 20
-21.395691277888545
 11
22.616015189798922
 21
-20.342968919039762
  0
LINE
  8
_0-1_
  6
CONTINUOUS
 62
    7
 10
20.116015070089382
 20
-21.395691212389139
 11
18.192014992824092
 21
-20.342968984539169
  0
ARC
  8
_0-1_
  6
CONTINUOUS
 62
    7
 10
20.404015031456716
 20
-20.869330098464189
 40
0.599999999999909
 50
241.31460219114322
 51
298.68540201411537
  0
ARC
  8
_0-1_
  6
CONTINUOUS
 62
    7
 10
17.904015031456716
 20
-20.869330098464189
 40
0.5999999999999943
 50
61.314597985882486
 51
90
  0
ARC
  8
_0-1_
  6
CONTINUOUS
 62
    7
 10
22.904015031456716
 20
-20.869330098464189
 40
0.5999999999999943
 50
90
 51
118.6854020141145
  0
LINE
  8
_0-1_
  6
CONTINUOUS
 62
    7
 10
15.692014873114481
 20
-21.395691277888545
 11
17.616015189798922
 21
-20.342968919039762
  0
LINE
  8
_0-1_
  6
CONTINUOUS
 62
    7
 10
15.116015070089382
 20
-21.395691212389139
 11
13.192014992824092
 21
-20.342968984539169
  0
ARC
  8
_0-1_
  6
CONTINUOUS
 62
    7
 10
15.404015031456716
 20
-20.869330098464189
 40
0.599999999999909
 50
241.31460219114322
 51
298.68540201411537
  0
ARC
  8
_0-1_
  6
CONTINUOUS
 62
    7
 10
12.904015031456716
 20
-20.869330098464189
 40
0.5999999999999943
 50
61.314597985882486
 51
90
  0
ARC
  8
_0-1_
  6
CONTINUOUS
 62
    7
 10
17.904015031456716
 20
-20.869330098464189
 40
0.5999999999999943
 50
90
 51
118.6854020141145
  0
LINE
  8
_0-1_
  6
CONTINUOUS
 62
    7
 10
10.692014873114481
 20
-21.395691277888545
 11
12.616015189798922
 21
-20.342968919039762
  0
LINE
  8
_0-1_
  6
CONTINUOUS
 62
    7
 10
10.116015070089382
 20
-21.395691212389139
 11
8.1920149928240917
 21
-20.342968984539169
  0
ARC
  8
_0-1_
  6
CONTINUOUS
 62
    7
 10
10.404015031456716
 20
-20.869330098464189
 40
0.599999999999909
 50
241.31460219114322
 51
298.68540201411537
  0
ARC
  8
_0-1_
  6
CONTINUOUS
 62
    7
 10
7.9040150314567157
 20
-20.869330098464189
 40
0.5999999999999943
 50
61.314597985882486
 51
90
  0
ARC
  8
_0-1_
  6
CONTINUOUS
 62
    7
 10
12.904015031456716
 20
-20.869330098464189
 40
0.5999999999999943
 50
90
 51
118.6854020141145
  0
LINE
  8
_0-1_
  6
CONTINUOUS
 62
    7
 10
-39.307985126885534
 20
-21.395691277888545
 11
-37.383984810201092
 21
-20.342968919039762
  0
LINE
  8
_0-1_
  6
CONTINUOUS
 62
    7
 10
-39.883984929910632
 20
-21.395691212389139
 11
-41.807985007175922
 21
-20.342968984539169
  0
ARC
  8
_0-1_
  6
CONTINUOUS
 62
    7
 10
-39.595984968543299
 20
-20.869330098464189
 40
0.599999999999909
 50
241.31460219114322
 51
298.68540201411537
  0
ARC
  8
_0-1_
  6
CONTINUOUS
 62
    7
 10
-42.095984968543299
 20
-20.869330098464189
 40
0.5999999999999943
 50
61.314597985882486
 51
90
  0
ARC
  8
_0-1_
  6
CONTINUOUS
 62
    7
 10
-37.095984968543299
 20
-20.869330098464189
 40
0.5999999999999943
 50
90
 51
118.6854020141145
  0
LINE
  8
_0-1_
  6
CONTINUOUS
 62
    7
 10
-34.883984810201063
 20
-21.395691277888545
 11
-36.807985126885505
 21
-20.342968919039762
  0
LINE
  8
_0-1_
  6
CONTINUOUS
 62
    7
 10
-34.307985007175965
 20
-21.395691212389139
 11
-32.383984929910675
 21
-20.342968984539169
  0
ARC
  8
_0-1_
  6
CONTINUOUS
 62
    7
 10
-34.595984968543299
 20
-20.869330098464189
 40
0.599999999999909
 50
241.31459798588466
 51
298.68539780885675
  0
ARC
  8
_0-1_
  6
CONTINUOUS
 62
    7
 10
-32.095984968543299
 20
-20.869330098464189
 40
0.5999999999999943
 50
90
 51
118.68540201411753
  0
ARC
  8
_0-1_
  6
CONTINUOUS
 62
    7
 10
-37.095984968543299
 20
-20.869330098464189
 40
0.5999999999999943
 50
61.314597985885506
 51
90
  0
LINE
  8
_0-1_
  6
CONTINUOUS
 62
    7
 10
-44.307985126885534
 20
-21.395691277888545
 11
-42.383984810201092
 21
-20.342968919039762
  0
LINE
  8
_0-1_
  6
CONTINUOUS
 62
    7
 10
-44.883984929910632
 20
-21.395691212389139
 11
-46.807985007175922
 21
-20.342968984539169
  0
ARC
  8
_0-1_
  6
CONTINUOUS
 62
    7
 10
-44.595984968543299
 20
-20.869330098464189
 40
0.599999999999909
 50
241.31460219114322
 51
298.68540201411537
  0
ARC
  8
_0-1_
  6
CONTINUOUS
 62
    7
 10
-47.095984968543299
 20
-20.869330098464189
 40
0.5999999999999943
 50
61.314597985882486
 51
90
  0
ARC
  8
_0-1_
  6
CONTINUOUS
 62
    7
 10
-42.095984968543299
 20
-20.869330098464189
 40
0.5999999999999943
 50
90
 51
118.6854020141145
  0
LINE
  8
_0-1_
  6
CONTINUOUS
 62
    7
 10
-49.307985126885534
 20
-21.395691277888545
 11
-47.383984810201092
 21
-20.342968919039762
  0
LINE
  8
_0-1_
  6
CONTINUOUS
 62
    7
 10
-49.883984929910632
 20
-21.395691212389139
 11
-51.807985007175922
 21
-20.342968984539169
  0
ARC
  8
_0-1_
  6
CONTINUOUS
 62
    7
 10
-49.595984968543299
 20
-20.869330098464189
 40
0.599999999999909
 50
241.31460219114322
 51
298.68540201411537
  0
ARC
  8
_0-1_
  6
CONTINUOUS
 62
    7
 10
-52.095984968543299
 20
-20.869330098464189
 40
0.5999999999999943
 50
61.314597985882486
 51
90
  0
ARC
  8
_0-1_
  6
CONTINUOUS
 62
    7
 10
-47.095984968543299
 20
-20.869330098464189
 40
0.5999999999999943
 50
90
 51
118.6854020141145
  0
LINE
  8
_0-1_
  6
CONTINUOUS
 62
    7
 10
-54.307985126885534
 20
-21.395691277888545
 11
-52.383984810201092
 21
-20.342968919039762
  0
LINE
  8
_0-1_
  6
CONTINUOUS
 62
    7
 10
-54.883984929910632
 20
-21.395691212389139
 11
-56.807985007175922
 21
-20.342968984539169
  0
ARC
  8
_0-1_
  6
CONTINUOUS
 62
    7
 10
-54.595984968543299
 20
-20.869330098464189
 40
0.599999999999909
 50
241.31460219114322
 51
298.68540201411537
  0
ARC
  8
_0-1_
  6
CONTINUOUS
 62
    7
 10
-57.095984968543299
 20
-20.869330098464189
 40
0.5999999999999943
 50
61.314597985882486
 51
90
  0
ARC
  8
_0-1_
  6
CONTINUOUS
 62
    7
 10
-52.095984968543299
 20
-20.869330098464189
 40
0.5999999999999943
 50
90
 51
118.6854020141145
  0
LINE
  8
_0-1_
  6
CONTINUOUS
 62
    7
 10
-59.307985126885534
 20
-21.395691277888545
 11
-57.383984810201092
 21
-20.342968919039762
  0
LINE
  8
_0-1_
  6
CONTINUOUS
 62
    7
 10
-59.883984929910632
 20
-21.395691212389139
 11
-61.807985007175922
 21
-20.342968984539169
  0
ARC
  8
_0-1_
  6
CONTINUOUS
 62
    7
 10
-59.595984968543299
 20
-20.869330098464189
 40
0.599999999999909
 50
241.31460219114322
 51
298.68540201411537
  0
ARC
  8
_0-1_
  6
CONTINUOUS
 62
    7
 10
-62.095984968543299
 20
-20.869330098464189
 40
0.5999999999999943
 50
61.314597985882486
 51
90
  0
ARC
  8
_0-1_
  6
CONTINUOUS
 62
    7
 10
-57.095984968543299
 20
-20.869330098464189
 40
0.5999999999999943
 50
90
 51
118.6854020141145
  0
LINE
  8
_0-1_
  6
CONTINUOUS
 62
    7
 10
-64.307985126885541
 20
-21.395691277888545
 11
-62.383984810201092
 21
-20.342968919039762
  0
LINE
  8
_0-1_
  6
CONTINUOUS
 62
    7
 10
-64.883984929910639
 20
-21.395691212389139
 11
-66.807985007175915
 21
-20.342968984539169
  0
ARC
  8
_0-1_
  6
CONTINUOUS
 62
    7
 10
-64.595984968543291
 20
-20.869330098464189
 40
0.599999999999909
 50
241.31460219114322
 51
298.68540201411537
  0
ARC
  8
_0-1_
  6
CONTINUOUS
 62
    7
 10
-67.095984968543291
 20
-20.869330098464189
 40
0.5999999999999943
 50
61.314597985882486
 51
90
  0
ARC
  8
_0-1_
  6
CONTINUOUS
 62
    7
 10
-62.095984968543299
 20
-20.869330098464189
 40
0.5999999999999943
 50
90
 51
118.6854020141145
  0
LINE
  8
_0-1_
  6
CONTINUOUS
 62
    7
 10
-69.307985126885541
 20
-21.395691277888545
 11
-67.383984810201099
 21
-20.342968919039762
  0
LINE
  8
_0-1_
  6
CONTINUOUS
 62
    7
 10
-69.883984929910639
 20
-21.395691212389139
 11
-71.807985007175915
 21
-20.342968984539169
  0
ARC
  8
_0-1_
  6
CONTINUOUS
 62
    7
 10
-69.595984968543291
 20
-20.869330098464189
 40
0.599999999999909
 50
241.31460219114322
 51
298.68540201411537
  0
ARC
  8
_0-1_
  6
CONTINUOUS
 62
    7
 10
-72.095984968543291
 20
-20.869330098464189
 40
0.5999999999999943
 50
61.314597985882486
 51
90
  0
ARC
  8
_0-1_
  6
CONTINUOUS
 62
    7
 10
-67.095984968543291
 20
-20.869330098464189
 40
0.5999999999999943
 50
90
 51
118.6854020141145
  0
ENDBLK
  0
BLOCK
  2
-001-NT-12N
 70
   64
 10
0
 20
0
 30
0
  0
LINE
  8
_0-1_
  6
CONTINUOUS
 62
    7
 10
169.33051258216477
 20
84.832095194705744
 11
169.33051258216477
 21
84.232095194706289
  0
LINE
  8
_0-1_
  6
CONTINUOUS
 62
    7
 10
169.33051258216477
 20
84.832095194705744
 11
172.33051258216477
 21
87.832095194705744
  0
ARC
  8
_0-1_
  6
CONTINUOUS
 62
    7
 10
177.13172195316457
 20
-115.07786954529354
 40
1.3999999999999999
 50
1.2602047085040915
 51
181.26020470819137
  0
ARC
  8
_0-1_
  6
CONTINUOUS
 62
    7
 10
182.24047732276432
 20
-109.96911417569379
 40
1.3999999999999999
 50
88.739795291600231
 51
268.73979529169793
  0
ARC
  8
_0-1_
  6
CONTINUOUS
 62
    7
 10
182.13051258236447
 20
-114.96790480489369
 40
3.6000000000000001
 50
181.26020470829556
 51
88.739795291697874
  0
LINE
  8
_0-1_
  6
CONTINUOUS
 62
    7
 10
-150.66948741763488
 20
115.83209519471541
 11
-150.66948741763488
 21
103.83209519470574
  0
ARC
  8
_0-1_
  6
CONTINUOUS
 62
    7
 10
-152.66948741763488
 20
115.83209519471541
 40
2
 50
0
 51
89.999999999722803
  0
ARC
  8
_0-1_
  6
CONTINUOUS
 62
    7
 10
183.33051258216477
 20
-116.16790480529426
 40
6
 50
270
 51
0
  0
ARC
  8
_0-1_
  6
CONTINUOUS
 62
    7
 10
-67.494416034702056
 20
-116.16790480529426
 40
6
 50
214.22633266265234
 51
270
  0
LINE
  8
_0-1_
  6
CONTINUOUS
 62
    7
 10
-67.494416034702056
 20
-122.16790480529426
 11
183.33051258216477
 21
-122.16790480529426
  0
ARC
  8
_0-1_
  6
CONTINUOUS
 62
    7
 10
-68.43544176017005
 20
-110.22279174919473
 40
1.3999999999999997
 50
288.3733710385041
 51
108.37337103819138
  0
ARC
  8
_0-1_
  6
CONTINUOUS
 62
    7
 10
-62.049572263592552
 20
-113.60205699855163
 40
1.3999999999999997
 50
15.852961621600238
 51
195.85296162169794
  0
ARC
  8
_0-1_
  6
CONTINUOUS
 62
    7
 10
-66.859401758347929
 20
-114.96790480489369
 40
3.6000000000000001
 50
108.37337103829557
 51
15.852961621697887
  0
LINE
  8
_0-1_
  6
CONTINUOUS
 62
    7
 10
189.33051258216477
 20
85.832095194705744
 11
189.33051258216477
 21
-116.16790480529426
  0
LINE
  8
_0-1_
  6
CONTINUOUS
 62
    7
 10
187.33051258216477
 20
87.832095194705744
 11
172.33051258216477
 21
87.832095194705744
  0
ARC
  8
_0-1_
  6
CONTINUOUS
 62
    7
 10
187.33051258216477
 20
85.832095194705744
 40
2
 50
0
 51
90
  0
ARC
  8
_0-1_
  6
CONTINUOUS
 62
    7
 10
-188.66948741783509
 20
124.83209519489276
 40
2
 50
89.999999999617827
 51
179.99999999999994
  0
LINE
  8
_0-1_
  6
CONTINUOUS
 62
    7
 10
-150.66948741763488
 20
103.83209519470574
 11
-154.66948741735087
 21
103.83209519470574
  0
LINE
  8
_0-1_
  6
CONTINUOUS
 62
    7
 10
-154.66948741735087
 20
103.83209519470574
 11
-154.66948741615067
 21
113.83209519472496
  0
LINE
  8
_0-1_
  6
CONTINUOUS
 62
    7
 10
-152.66948741762522
 20
117.83209519471541
 11
-186.66948741735087
 21
117.83209519488184
  0
LINE
  8
_0-1_
  6
CONTINUOUS
 62
    7
 10
-186.66948741735087
 20
117.83209519488184
 11
-186.66948741735087
 21
122.83209519488213
  0
LINE
  8
_0-1_
  6
CONTINUOUS
 62
    7
 10
-154.66948741615067
 20
113.83209519472496
 11
-186.66948741715066
 21
113.83209519472496
  0
ARC
  8
_0-1_
  6
CONTINUOUS
 62
    7
 10
-66.859401758347929
 20
-114.96790480489369
 40
6.4000000000000004
 50
108.37337103829552
 51
132.43954336163171
  0
ARC
  8
_0-1_
  6
CONTINUOUS
 62
    7
 10
-72.527821555892302
 20
-108.76879059407236
 40
2
 50
214.22633266265058
 51
312.43954336163171
  0
ARC
  8
_0-1_
  6
CONTINUOUS
 62
    7
 10
-66.859401758347929
 20
-114.96790480489369
 40
6.4000000000000004
 50
351.78678929549892
 51
15.852961621697384
  0
ARC
  8
_0-1_
  6
CONTINUOUS
 62
    7
 10
-58.545557882075187
 20
-116.1679048052946
 40
2
 50
171.78678929549875
 51
270
  0
LINE
  8
_0-1_
  6
CONTINUOUS
 62
    7
 10
-58.545557882075187
 20
-118.1679048052946
 11
173.81666870609172
 21
-118.1679048052946
  0
ARC
  8
_0-1_
  6
CONTINUOUS
 62
    7
 10
182.13051258236447
 20
-114.96790480489369
 40
6.4000000000000004
 50
181.26020470829539
 51
188.21321070450105
  0
ARC
  8
_0-1_
  6
CONTINUOUS
 62
    7
 10
173.81666870609172
 20
-116.1679048052946
 40
2
 50
270
 51
8.213210704501277
  0
ARC
  8
_0-1_
  6
CONTINUOUS
 62
    7
 10
182.13051258236447
 20
-114.96790480489369
 40
6.4000000000000004
 50
81.786789296300142
 51
88.739795291697462
  0
ARC
  8
_0-1_
  6
CONTINUOUS
 62
    7
 10
183.33051258264913
 20
-106.65406092860417
 40
2
 50
261.78678929630001
 51
0
  0
ARC
  8
_0-1_
  6
CONTINUOUS
 62
    7
 10
170.33051258216477
 20
84.232095194706289
 40
1
 50
180
 51
336.42182152177105
  0
LINE
  8
_0-1_
  6
CONTINUOUS
 62
    7
 10
185.33051258124942
 20
83.832095194705857
 11
171.24702772115575
 21
83.832095194705857
  0
LINE
  8
_0-1_
  6
CONTINUOUS
 62
    7
 10
-188.66948741782176
 20
126.83209519489276
 11
-174.66948741783509
 21
126.83209519477271
  0
LINE
  8
_0-1_
  6
CONTINUOUS
 62
    7
 10
-174.66948741783509
 20
126.83209519477271
 11
-174.66948741783509
 21
122.83209519477271
  0
LINE
  8
_0-1_
  6
CONTINUOUS
 62
    7
 10
-174.66948741783509
 20
122.83209519477271
 11
-186.66948741735087
 21
122.83209519488213
  0
ARC
  8
_0-1_
  6
CONTINUOUS
 62
    7
 10
-159.61256547948258
 20
55.044528265968815
 40
1.3999999999999999
 50
226.26020470839975
 51
46.260204708197875
  0
ARC
  8
_0-1_
  6
CONTINUOUS
 62
    7
 10
-159.6125654794827
 20
47.819657135434632
 40
1.3999999999999999
 50
313.7397952918086
 51
133.73979529149591
  0
ARC
  8
_0-1_
  6
CONTINUOUS
 62
    7
 10
-163.06948741763509
 20
51.432092700843292
 40
3.6000000000000001
 50
46.260204708302162
 51
313.73979529170447
  0
ARC
  8
_0-1_
  6
CONTINUOUS
 62
    7
 10
-163.06948741763509
 20
51.432092700843292
 40
6.4000000000000004
 50
46.260204708302162
 51
161.79004313571724
  0
ARC
  8
_0-1_
  6
CONTINUOUS
 62
    7
 10
-163.06948741763509
 20
51.432092700843292
 40
6.4000000000000004
 50
198.20995686428327
 51
313.73979529170458
  0
LINE
  8
_0-1_
  6
CONTINUOUS
 62
    7
 10
-186.66948741735087
 20
113.83209519472496
 11
-186.66948741735087
 21
55.463855096975983
  0
LINE
  8
_0-1_
  6
CONTINUOUS
 62
    7
 10
-185.28733763948767
 20
53.432092700843263
 11
-169.14896107906335
 21
53.432092700843263
  0
LINE
  8
_0-1_
  6
CONTINUOUS
 62
    7
 10
-186.66948741735087
 20
55.463855096975983
 11
-185.28733763948767
 21
53.432092700843263
  0
LINE
  8
_0-1_
  6
CONTINUOUS
 62
    7
 10
-178.78680959457091
 20
49.432092700843263
 11
-169.14896107906335
 21
49.432092700843263
  0
LINE
  8
_0-1_
  6
CONTINUOUS
 62
    7
 10
-180.44045391076858
 20
46.307165825216593
 11
-74.181465872090001
 21
-109.893717469699
  0
ARC
  8
_0-1_
  6
CONTINUOUS
 62
    7
 10
-178.78680959457091
 20
47.432092700843263
 40
2
 50
90
 51
214.22633266265228
  0
LINE
  8
_0-1_
  6
CONTINUOUS
 62
    7
 10
-190.66948741783509
 20
124.83209519489276
 11
-190.66948741783509
 21
56.079638560429025
  0
ARC
  8
_0-1_
  6
CONTINUOUS
 62
    7
 10
-184.66948741783509
 20
56.079638560429025
 40
6
 50
180
 51
214.22633266265228
  0
LINE
  8
_0-1_
  6
CONTINUOUS
 62
    7
 10
-189.63042036642807
 20
52.704857933549
 11
-72.455348983295011
 21
-119.54268543217427
  0
ARC
  8
_0-1_
  6
CONTINUOUS
 62
    7
 10
161.73051258285841
 20
47.83209268005259
 40
3.6000000000000001
 50
316.26020470829553
 51
223.73979529169787
  0
ARC
  8
_0-1_
  6
CONTINUOUS
 62
    7
 10
165.34294814812574
 20
44.37517074204208
 40
1.3999999999999999
 50
136.26020470850409
 51
316.2602047081914
  0
ARC
  8
_0-1_
  6
CONTINUOUS
 62
    7
 10
158.11807701759108
 20
44.37517074204208
 40
1.3999999999999999
 50
223.73979529160025
 51
43.739795291697938
  0
ARC
  8
_0-1_
  6
CONTINUOUS
 62
    7
 10
161.73051258285841
 20
47.83209268005259
 40
6.4000000000000004
 50
180
 51
223.73979529169787
  0
LINE
  8
_0-1_
  6
CONTINUOUS
 62
    7
 10
155.33051258285832
 20
47.83209268005259
 11
155.33051258285832
 21
51.432092680042949
  0
ARC
  8
_0-1_
  6
CONTINUOUS
 62
    7
 10
161.73051258285841
 20
47.83209268005259
 40
6.4000000000000004
 50
316.26020470829684
 51
0.000000186127841
  0
ARC
  8
_0-1_
  6
CONTINUOUS
 62
    7
 10
161.73051258244914
 20
51.432092680042949
 40
6.4000000000000004
 50
16.570258384632947
 51
180
  0
LINE
  8
_0-1_
  6
CONTINUOUS
 62
    7
 10
168.13051258237428
 20
47.832092700843269
 11
168.13051258237428
 21
49.432092700833628
  0
LINE
  8
_0-1_
  6
CONTINUOUS
 62
    7
 10
168.13051258237428
 20
49.432092700833628
 11
185.33051258264913
 21
49.432092700833628
  0
LINE
  8
_0-1_
  6
CONTINUOUS
 62
    7
 10
185.33051258264913
 20
-106.65406092860417
 11
185.33051258264913
 21
49.432092700833628
  0
LINE
  8
_0-1_
  6
CONTINUOUS
 62
    7
 10
167.80998624339318
 20
53.432092700833628
 11
185.33051258264913
 21
53.432092700833628
  0
LINE
  8
_0-1_
  6
CONTINUOUS
 62
    7
 10
185.33051258264913
 20
53.432092700833628
 11
185.33051258264913
 21
83.832095173905714
  0
ENDBLK
  0
BLOCK
  2
-002-OUT-12N
 70
   64
 10
0
 20
0
 30
0
  0
ARC
  8
_0-0_
  6
CONTINUOUS
 62
    7
 10
-8.9319276324493728
 20
-25.731061744147002
 40
15.600000000000069
 50
20.510121741958461
 51
103.71621088420957
  0
ARC
  8
_0-0_
  6
CONTINUOUS
 62
    7
 10
-13.303915906686914
 20
-12.431222702642419
 40
2
 50
214.22633266265444
 51
288.196981850128
  0
ARC
  8
_0-0_
  6
CONTINUOUS
 62
    7
 10
-8.9319276324493728
 20
-25.731061744147002
 40
12.000000000000069
 50
16.029350772905079
 51
108.19698185013215
  0
ARC
  8
_0-0_
  6
CONTINUOUS
 62
    7
 10
4.5237575436946464
 20
-21.865245343889757
 40
2
 50
196.02935077290917
 51
270
  0
LINE
  8
_0-0_
  6
CONTINUOUS
 62
    7
 10
4.5237575436946464
 20
-23.865245343889757
 11
56.291838149008107
 21
-23.86524534388975
  0
LINE
  8
_0-0_
  6
CONTINUOUS
 62
    7
 10
61.234400733227325
 20
-21.011655505403585
 11
56.291838149008107
 21
-23.865245343889743
  0
ARC
  8
_0-0_
  6
CONTINUOUS
 62
    7
 10
61.034400733227308
 20
-20.665245343889854
 40
0.4
 50
300.00000000000534
 51
90
  0
ARC
  8
_0-0_
  6
CONTINUOUS
 62
    7
 10
-116.81807127263994
 20
139.73475215759581
 40
2
 50
89.999993945116117
 51
214.22633266265245
  0
LINE
  8
_0-0_
  6
CONTINUOUS
 62
    7
 10
-118.47171559268389
 20
138.60982527935261
 11
-14.95756022288408
 21
-13.556149578268876
  0
LINE
  8
_0-0_
  6
CONTINUOUS
 62
    7
 10
-116.81807106128474
 20
141.73475215759581
 11
-111.50277657382097
 21
141.73475127957417
  0
LINE
  8
_0-0_
  6
CONTINUOUS
 62
    7
 10
-111.50277657382098
 20
134.76588973815365
 11
-111.50277657382098
 21
141.73475127957417
  0
LINE
  8
_0-0_
  6
CONTINUOUS
 62
    7
 10
-111.50277657382098
 20
134.76588973815365
 11
-12.630890747335169
 21
-10.57594142543245
  0
LINE
  8
_0-0_
  6
CONTINUOUS
 62
    7
 10
61.034400733227308
 20
-20.265245343889848
 11
45.679193169141548
 21
-20.265245343889848
  0
LINE
  8
_0-1_
  6
CONTINUOUS
 62
    7
 10
38.467193010799285
 20
-21.391606523314206
 11
40.391193327483727
 21
-20.338884164465423
  0
LINE
  8
_0-1_
  6
CONTINUOUS
 62
    7
 10
37.891193207774187
 20
-21.391606457814799
 11
35.967193130508896
 21
-20.33888422996483
  0
ARC
  8
_0-1_
  6
CONTINUOUS
 62
    7
 10
38.17919316914152
 20
-20.86524534388985
 40
0.599999999999909
 50
241.31460219114322
 51
298.68540201411537
  0
ARC
  8
_0-1_
  6
CONTINUOUS
 62
    7
 10
35.67919316914152
 20
-20.86524534388985
 40
0.5999999999999943
 50
61.314597985882486
 51
90
  0
ARC
  8
_0-1_
  6
CONTINUOUS
 62
    7
 10
40.67919316914152
 20
-20.86524534388985
 40
0.5999999999999943
 50
90
 51
118.6854020141145
  0
LINE
  8
_0-1_
  6
CONTINUOUS
 62
    7
 10
42.891193327483755
 20
-21.391606523314206
 11
40.967193010799313
 21
-20.338884164465423
  0
LINE
  8
_0-1_
  6
CONTINUOUS
 62
    7
 10
43.467193130508853
 20
-21.391606457814799
 11
45.391193207774144
 21
-20.33888422996483
  0
ARC
  8
_0-1_
  6
CONTINUOUS
 62
    7
 10
43.17919316914152
 20
-20.86524534388985
 40
0.599999999999909
 50
241.31459798588466
 51
298.68539780885675
  0
ARC
  8
_0-1_
  6
CONTINUOUS
 62
    7
 10
45.67919316914152
 20
-20.86524534388985
 40
0.5999999999999943
 50
90
 51
118.68540201411753
  0
ARC
  8
_0-1_
  6
CONTINUOUS
 62
    7
 10
40.67919316914152
 20
-20.86524534388985
 40
0.5999999999999943
 50
61.314597985885506
 51
90
  0
LINE
  8
_0-1_
  6
CONTINUOUS
 62
    7
 10
33.467193010799285
 20
-21.391606523314206
 11
35.391193327483727
 21
-20.338884164465423
  0
LINE
  8
_0-1_
  6
CONTINUOUS
 62
    7
 10
32.891193207774187
 20
-21.391606457814799
 11
30.967193130508896
 21
-20.33888422996483
  0
ARC
  8
_0-1_
  6
CONTINUOUS
 62
    7
 10
33.17919316914152
 20
-20.86524534388985
 40
0.599999999999909
 50
241.31460219114322
 51
298.68540201411537
  0
ARC
  8
_0-1_
  6
CONTINUOUS
 62
    7
 10
30.67919316914152
 20
-20.86524534388985
 40
0.5999999999999943
 50
61.314597985882486
 51
90
  0
ARC
  8
_0-1_
  6
CONTINUOUS
 62
    7
 10
35.67919316914152
 20
-20.86524534388985
 40
0.5999999999999943
 50
90
 51
118.6854020141145
  0
LINE
  8
_0-1_
  6
CONTINUOUS
 62
    7
 10
28.467193010799285
 20
-21.391606523314206
 11
30.391193327483727
 21
-20.338884164465423
  0
LINE
  8
_0-1_
  6
CONTINUOUS
 62
    7
 10
27.891193207774187
 20
-21.391606457814799
 11
25.967193130508896
 21
-20.33888422996483
  0
ARC
  8
_0-1_
  6
CONTINUOUS
 62
    7
 10
28.17919316914152
 20
-20.86524534388985
 40
0.599999999999909
 50
241.31460219114322
 51
298.68540201411537
  0
ARC
  8
_0-1_
  6
CONTINUOUS
 62
    7
 10
25.67919316914152
 20
-20.86524534388985
 40
0.5999999999999943
 50
61.314597985882486
 51
90
  0
ARC
  8
_0-1_
  6
CONTINUOUS
 62
    7
 10
30.67919316914152
 20
-20.86524534388985
 40
0.5999999999999943
 50
90
 51
118.6854020141145
  0
LINE
  8
_0-1_
  6
CONTINUOUS
 62
    7
 10
23.467193010799285
 20
-21.391606523314206
 11
25.391193327483727
 21
-20.338884164465423
  0
LINE
  8
_0-1_
  6
CONTINUOUS
 62
    7
 10
22.891193207774187
 20
-21.391606457814799
 11
20.967193130508896
 21
-20.33888422996483
  0
ARC
  8
_0-1_
  6
CONTINUOUS
 62
    7
 10
23.17919316914152
 20
-20.86524534388985
 40
0.599999999999909
 50
241.31460219114322
 51
298.68540201411537
  0
ARC
  8
_0-1_
  6
CONTINUOUS
 62
    7
 10
20.67919316914152
 20
-20.86524534388985
 40
0.5999999999999943
 50
61.314597985882486
 51
90
  0
ARC
  8
_0-1_
  6
CONTINUOUS
 62
    7
 10
25.67919316914152
 20
-20.86524534388985
 40
0.5999999999999943
 50
90
 51
118.6854020141145
  0
LINE
  8
_0-1_
  6
CONTINUOUS
 62
    7
 10
18.467193010799285
 20
-21.391606523314206
 11
20.391193327483727
 21
-20.338884164465423
  0
LINE
  8
_0-1_
  6
CONTINUOUS
 62
    7
 10
17.891193207774187
 20
-21.391606457814799
 11
15.967193130508898
 21
-20.33888422996483
  0
ARC
  8
_0-1_
  6
CONTINUOUS
 62
    7
 10
18.17919316914152
 20
-20.86524534388985
 40
0.599999999999909
 50
241.31460219114322
 51
298.68540201411537
  0
ARC
  8
_0-1_
  6
CONTINUOUS
 62
    7
 10
15.679193169141522
 20
-20.86524534388985
 40
0.5999999999999943
 50
61.314597985882486
 51
90
  0
ARC
  8
_0-1_
  6
CONTINUOUS
 62
    7
 10
20.67919316914152
 20
-20.86524534388985
 40
0.5999999999999943
 50
90
 51
118.6854020141145
  0
LINE
  8
_0-1_
  6
CONTINUOUS
 62
    7
 10
13.467193010799287
 20
-21.391606523314206
 11
15.391193327483728
 21
-20.338884164465423
  0
LINE
  8
_0-1_
  6
CONTINUOUS
 62
    7
 10
12.891193207774188
 20
-21.391606457814799
 11
10.967193130508898
 21
-20.33888422996483
  0
ARC
  8
_0-1_
  6
CONTINUOUS
 62
    7
 10
13.179193169141522
 20
-20.86524534388985
 40
0.599999999999909
 50
241.31460219114322
 51
298.68540201411537
  0
ARC
  8
_0-1_
  6
CONTINUOUS
 62
    7
 10
10.679193169141522
 20
-20.86524534388985
 40
0.5999999999999943
 50
61.314597985882486
 51
90
  0
ARC
  8
_0-1_
  6
CONTINUOUS
 62
    7
 10
15.679193169141522
 20
-20.86524534388985
 40
0.5999999999999943
 50
90
 51
118.6854020141145
  0
LINE
  8
_0-1_
  6
CONTINUOUS
 62
    7
 10
8.4671930107992868
 20
-21.391606523314206
 11
10.391193327483728
 21
-20.338884164465423
  0
LINE
  8
_0-1_
  6
CONTINUOUS
 62
    7
 10
7.8911932077741884
 20
-21.391606457814799
 11
5.9671931305088979
 21
-20.33888422996483
  0
ARC
  8
_0-1_
  6
CONTINUOUS
 62
    7
 10
8.1791931691415218
 20
-20.86524534388985
 40
0.599999999999909
 50
241.31460219114322
 51
298.68540201411537
  0
ARC
  8
_0-1_
  6
CONTINUOUS
 62
    7
 10
5.6791931691415218
 20
-20.86524534388985
 40
0.5999999999999943
 50
61.314597985882486
 51
90
  0
ARC
  8
_0-1_
  6
CONTINUOUS
 62
    7
 10
10.679193169141522
 20
-20.86524534388985
 40
0.5999999999999943
 50
90
 51
118.6854020141145
  0
ENDBLK
  0
BLOCK
  2
-003-JEJ-12N
 70
   64
 10
0
 20
0
 30
0
  0
LINE
  8
_0-1_
  6
CONTINUOUS
 62
    7
 10
168.12891883573934
 20
64.694748641372456
 11
190.12891883573934
 21
64.694748641372456
  0
ARC
  8
_0-1_
  6
CONTINUOUS
 62
    7
 10
183.12891883573934
 20
-140.30525135862754
 40
7
 50
270
 51
0
  0
LINE
  8
_0-1_
  6
CONTINUOUS
 62
    7
 10
190.12891883573934
 20
-140.30525135862754
 11
190.12891883573934
 21
64.694748641372456
  0
LINE
  8
_0-1_
  6
CONTINUOUS
 62
    7
 10
-190.65883627095235
 20
28.005047942402236
 11
-73.483764887819305
 21
-144.24249542332078
  0
ARC
  8
_0-1_
  6
CONTINUOUS
 62
    7
 10
-67.696009781127501
 20
-140.30525135862754
 40
7
 50
214.22633266265234
 51
270
  0
LINE
  8
_0-1_
  6
CONTINUOUS
 62
    7
 10
-67.696009781127501
 20
-147.30525135862754
 11
183.12891883573934
 21
-147.30525135862754
  0
ARC
  8
_0-1_
  6
CONTINUOUS
 62
    7
 10
-184.87108116426054
 20
31.942292007095695
 40
7
 50
180
 51
214.22633266265228
  0
LINE
  8
_0-1_
  6
CONTINUOUS
 62
    7
 10
-191.87108116426054
 20
103.69474864157937
 11
-191.87108116426054
 21
31.942292007095695
  0
LINE
  8
_0-1_
  6
CONTINUOUS
 62
    7
 10
-191.87108116426054
 20
103.69474864157937
 11
-172.87108116427399
 21
103.69474864145269
  0
ARC
  8
_0-1_
  6
CONTINUOUS
 62
    7
 10
-172.87108116426066
 20
105.6947486414528
 40
2.0000000000001137
 50
269.99999999961813
 51
89.999999999618126
  0
ARC
  8
_0-1_
  6
CONTINUOUS
 62
    7
 10
-193.87108116426066
 20
105.69474864159271
 40
2
 50
89.99999999961895
 51
180
  0
ARC
  8
_0-1_
  6
CONTINUOUS
 62
    7
 10
166.12891883573934
 20
66.694748641372456
 40
2
 50
90
 51
180
  0
LINE
  8
_0-1_
  6
CONTINUOUS
 62
    7
 10
192.12891883573934
 20
68.694748641372456
 11
166.12891883573934
 21
68.694748641372456
  0
ARC
  8
_0-1_
  6
CONTINUOUS
 62
    7
 10
192.12891883573934
 20
66.694748641372456
 40
2
 50
0
 51
90.000000000000014
  0
LINE
  8
_0-1_
  6
CONTINUOUS
 62
    7
 10
194.12891883573934
 20
-140.30525135862754
 11
194.12891883573934
 21
66.694748641372456
  0
ARC
  8
_0-1_
  6
CONTINUOUS
 62
    7
 10
183.12891883573934
 20
-140.30525135862754
 40
11
 50
270
 51
0
  0
LINE
  8
_0-1_
  6
CONTINUOUS
 62
    7
 10
-67.696009781127444
 20
-151.30525135862754
 11
183.12891883573934
 21
-151.30525135862754
  0
ARC
  8
_0-1_
  6
CONTINUOUS
 62
    7
 10
-67.696009781127444
 20
-140.30525135862754
 40
11
 50
214.22633266265234
 51
270
  0
LINE
  8
_0-1_
  6
CONTINUOUS
 62
    7
 10
-193.96612490334778
 20
25.755194191148938
 11
-76.791053520214547
 21
-146.49234917457423
  0
LINE
  8
_0-1_
  6
CONTINUOUS
 62
    7
 10
-195.87108116426066
 20
31.942292007095638
 11
-195.87108116426066
 21
105.69474864159271
  0
ARC
  8
_0-1_
  6
CONTINUOUS
 62
    7
 10
-184.87108116426066
 20
31.942292007095638
 40
11
 50
180
 51
214.22633266265234
  0
LINE
  8
_0-1_
  6
CONTINUOUS
 62
    7
 10
168.12891883573934
 20
64.694748641372456
 11
168.12891883573934
 21
63.694748641372399
  0
ARC
  8
_0-1_
  6
CONTINUOUS
 62
    7
 10
166.12891883573934
 20
63.694748641372399
 40
2
 50
180
 51
0
  0
LINE
  8
_0-1_
  6
CONTINUOUS
 62
    7
 10
164.12891883573934
 20
66.694748641372456
 11
164.12891883573934
 21
63.694748641372399
  0
LINE
  8
_0-1_
  6
CONTINUOUS
 62
    7
 10
-183.07108116428117
 20
107.69474864151024
 11
-182.47108116428092
 21
107.09474864150624
  0
LINE
  8
_0-1_
  6
CONTINUOUS
 62
    7
 10
-181.87108116428874
 20
107.69474864150229
 11
-182.47108116428092
 21
107.09474864150624
  0
LINE
  8
_0-1_
  6
CONTINUOUS
 62
    7
 10
-181.87108116428874
 20
107.69474864150229
 11
-172.87108116424733
 21
107.69474864145292
  0
LINE
  8
_0-1_
  6
CONTINUOUS
 62
    7
 10
-193.87108116424736
 20
107.69474864159271
 11
-183.07108116428117
 21
107.69474864151024
  0
ENDBLK
  0
BLOCK
  2
-004-M4TRUSHEAD_1_
 70
   64
 10
0
 20
0
 30
0
  0
LINE
  8
_0-1_
  6
CONTINUOUS
 62
    7
 10
-1.8980000000000246
 20
0.7639999999999957
 11
-3.4560000000000173
 21
0.7639999999999957
  0
LINE
  8
_0-1_
  6
CONTINUOUS
 62
    7
 10
-1.8980000000000246
 20
-0.7639999999999957
 11
-3.4560000000000173
 21
-0.7639999999999957
  0
LINE
  8
_0-1_
  6
CONTINUOUS
 62
    7
 10
-0.76400000000001
 20
-1.8979999999999961
 11
-0.76400000000001
 21
-3.4560000000000031
  0
LINE
  8
_0-1_
  6
CONTINUOUS
 62
    7
 10
0.76400000000001
 20
-1.8979999999999961
 11
0.76400000000001
 21
-3.4560000000000031
  0
LINE
  8
_0-1_
  6
CONTINUOUS
 62
    7
 10
1.8980000000000246
 20
-0.7639999999999957
 11
3.4560000000000173
 21
-0.7639999999999957
  0
LINE
  8
_0-1_
  6
CONTINUOUS
 62
    7
 10
1.8980000000000246
 20
0.7639999999999957
 11
3.4560000000000173
 21
0.7639999999999957
  0
LINE
  8
_0-1_
  6
CONTINUOUS
 62
    7
 10
0.76400000000001
 20
1.8979999999999961
 11
0.76400000000001
 21
3.4560000000000031
  0
LINE
  8
_0-1_
  6
CONTINUOUS
 62
    7
 10
-0.76400000000001
 20
1.8979999999999961
 11
-0.76400000000001
 21
3.4560000000000031
  0
ARC
  8
_0-1_
  6
CONTINUOUS
 62
    7
 10
-1.8980000000000246
 20
1.8979999999999961
 40
1.1320000000000001
 50
270
 51
0
  0
ARC
  8
_0-1_
  6
CONTINUOUS
 62
    7
 10
1.8980000000000246
 20
1.8979999999999961
 40
1.1320000000000001
 50
180
 51
270
  0
ARC
  8
_0-1_
  6
CONTINUOUS
 62
    7
 10
1.8980000000000246
 20
-1.8979999999999961
 40
1.1320000000000001
 50
90
 51
180
  0
ARC
  8
_0-1_
  6
CONTINUOUS
 62
    7
 10
-1.8980000000000246
 20
-1.8979999999999961
 40
1.1320000000000001
 50
0
 51
90
  0
ARC
  8
_0-1_
  6
CONTINUOUS
 62
    7
 10
0
 20
0
 40
3.54
 50
347.52572631835937
 51
12.474273681640634
  0
ARC
  8
_0-1_
  6
CONTINUOUS
 62
    7
 10
0
 20
0
 40
3.54
 50
77.52581787109375
 51
102.47418212890625
  0
ARC
  8
_0-1_
  6
CONTINUOUS
 62
    7
 10
0
 20
0
 40
3.54
 50
167.52572631835937
 51
192.47427368164065
  0
ARC
  8
_0-1_
  6
CONTINUOUS
 62
    7
 10
0
 20
0
 40
3.54
 50
257.52581787109375
 51
282.47418212890625
  0
CIRCLE
  8
_0-1_
  6
CONTINUOUS
 62
    7
 10
-0.0000000000000142
 20
0
 40
7
  0
ENDBLK
  0
BLOCK
  2
-005-TX4X16O
 70
   64
 10
0
 20
0
 30
0
  0
LINE
  8
_0-1_
  6
DASHED1
 62
    5
 10
-4.1924696583440664
 20
-6.883305121309192
 11
4.2074297411292605
 21
-5.4727000135891757
  0
LINE
  8
_0-1_
  6
DASHED1
 62
    5
 10
-4.1924696583440664
 20
-3.6833053643306783
 11
4.2074297411292605
 21
-2.2727002566107188
  0
LINE
  8
_0-1_
  6
DASHED1
 62
    5
 10
-4.1924696583440664
 20
-0.4833056073522783
 11
4.2074297411292605
 21
0.927299500367738
  0
LINE
  8
_0-1_
  6
DASHED1
 62
    5
 10
-4.1924696583440664
 20
2.7166941496262353
 11
4.2074297411292605
 21
4.1272992573461948
  0
LINE
  8
_0-1_
  6
DASHED1
 62
    5
 10
-4.1924696583440664
 20
5.9166939066046353
 11
4.2074297411292605
 21
7.3272990143246517
  0
LINE
  8
_0-1_
  6
DASHED1
 62
    5
 10
-4.1924696583440664
 20
9.116693663583149
 11
4.2074297411292605
 21
10.527298771303109
  0
LINE
  8
_0-1_
  6
DASHED1
 62
    5
 10
3.2073994619730684
 20
-8.3087538618538446
 11
-3.1925497492252362
 21
-9.2442368407193243
  0
LINE
  8
_0-1_
  6
DASHED1
 62
    5
 10
-1.7925176371340399
 20
-16.94073761887698
 11
0.9280833851693159
 21
-8.6330117125102532
  0
LINE
  8
_0-1_
  6
DASHED1
 62
    5
 10
0.0074975038110096
 20
-18.672705544942502
 11
-1.7924933183405756
 21
-16.940665139620293
  0
LINE
  8
_0-1_
  6
DASHED1
 62
    5
 10
-1.7925125110317595
 20
-16.940647973528982
 11
-3.1925046881536332
 21
-16.940647973528982
  0
LINE
  8
_0-1_
  6
DASHED1
 62
    5
 10
0.0074655859197605
 20
-18.672779931519059
 11
3.2074454767797533
 21
-9.5118721861655757
  0
LINE
  8
_0-1_
  6
DASHED1
 62
    5
 10
0.928051079456452
 20
-8.6329573530712622
 11
3.2074383242082263
 21
-9.5118225950699724
  0
LINE
  8
_0-1_
  6
DASHED1
 62
    3
 10
0.0074953850989913
 20
-18.672692193461145
 11
-3.1924930056307517
 21
-16.940636529441733
  0
LINE
  8
_0-1_
  6
DASHED1
 62
    3
 10
3.2074552519053441
 20
-16.940629503967372
 11
0.0074733485926685
 21
-18.672680749410731
  0
LINE
  8
_0-1_
  6
DASHED1
 62
    3
 10
-3.1925046881144681
 20
-16.940647973527618
 11
-3.1925046881144681
 21
13.327296362430232
  0
LINE
  8
_0-1_
  6
DASHED1
 62
    3
 10
3.2074552519053441
 20
-16.940629503967372
 11
3.2074552519053441
 21
13.327296362430232
  0
LINE
  8
_0-1_
  6
CONTINUOUS
 62
    7
 10
8.0074752819145942
 20
13.727296338606735
 11
8.0074752819145942
 21
16.336426458888027
  0
LINE
  8
_0-1_
  6
CONTINUOUS
 62
    7
 10
7.6074737559902132
 20
13.327296362430232
 11
-7.5925231922213925
 21
13.327296362430232
  0
ARC
  8
_0-1_
  6
CONTINUOUS
 62
    7
 10
0.0074752678851837
 20
4.2516355254033016
 40
14.675660837055725
 50
57.776535044633405
 51
122.22346325049699
  0
ARC
  8
_0-1_
  6
CONTINUOUS
 62
    7
 10
-7.5925231922933563
 20
16.336426458845054
 40
0.3999999761581999
 50
124.29764032734626
 51
179.99996402781815
  0
ARC
  8
_0-1_
  6
CONTINUOUS
 62
    7
 10
-7.5925231922025773
 20
13.727296338562056
 40
0.3999999761581999
 50
180.00003597218074
 51
270.0000179860902
  0
LINE
  8
_0-1_
  6
CONTINUOUS
 62
    7
 10
-7.9925247180807446
 20
13.727296338598833
 11
-7.9925247180807446
 21
16.336426458880126
  0
ARC
  8
_0-1_
  6
CONTINUOUS
 62
    7
 10
7.6074737560355743
 20
16.336426458866654
 40
0.3999999761581999
 50
359.99999999999943
 51
55.702357851419322
  0
ARC
  8
_0-1_
  6
CONTINUOUS
 62
    7
 10
7.6074737560098811
 20
13.727296338585361
 40
0.3999999761581999
 50
270.0000179860902
 51
359.99999999999943
  0
ENDBLK
  0
BLOCK
  2
-006-M4T_5_
 70
   64
 10
0
 20
0
 30
0
  0
LINE
  8
_0-1_
  6
CONTINUOUS
 62
    7
 10
-3.9999999999999996
 20
2.461999999999998
 11
-3.9999999999999996
 21
2.8899999999999952
  0
LINE
  8
_0-1_
  6
CONTINUOUS
 62
    7
 10
4
 20
2.461999999999998
 11
4
 21
2.8899999999999952
  0
ARC
  8
_0-1_
  6
CONTINUOUS
 62
    7
 10
0.0000000000000004
 20
-0.7379999999999906
 40
5.4000000000000004
 50
42.205444335937507
 51
137.79454040527344
  0
LINE
  8
_0-1_
  6
CONTINUOUS
 62
    7
 10
-3.9999999999999996
 20
2.4620000000000033
 11
4
 21
2.4620000000000033
  0
ENDBLK
  0
BLOCK
  2
-007-OTK-NT12-H
 70
   64
 10
0
 20
0
 30
0
  0
LINE
  8
_0-1_
  6
CONTINUOUS
 62
    7
 10
12.634117994866138
 20
81.277871269169879
 11
12.634117994866138
 21
-1.3887953974979865
  0
LINE
  8
_0-1_
  6
CONTINUOUS
 62
    7
 10
-33.03254867179924
 20
73.277871269169538
 11
-33.03254867179924
 21
81.277871269169879
  0
LINE
  8
_0-1_
  6
CONTINUOUS
 62
    7
 10
-33.032548671800377
 20
81.277871269169879
 11
33.634117994866138
 21
81.277871269169879
  0
LINE
  8
_0-1_
  6
DASHED1
 62
    3
 10
24.634117994866052
 20
81.277871269169879
 11
24.634117994866052
 21
77.944537935835598
  0
LINE
  8
_0-1_
  6
DASHED1
 62
    3
 10
29.300784661532738
 20
81.277871269169879
 11
29.300784661532738
 21
77.944537935835598
  0
LINE
  8
_0-1_
  6
DASHED1
 62
    3
 10
23.967451328199395
 20
81.277871269169879
 11
23.967451328199395
 21
77.944537935835598
  0
LINE
  8
_0-1_
  6
DASHED1
 62
    3
 10
29.967451328199395
 20
81.277871269169879
 11
29.967451328199395
 21
77.944537935835598
  0
LINE
  8
_0-1_
  6
CONTINUOUS
 62
    7
 10
-33.032548671800832
 20
73.277871269169083
 11
-33.032548671800832
 21
81.277871269168969
  0
LINE
  8
_0-1_
  6
DASHED1
 62
    3
 10
-24.032548671800747
 20
81.277871269169879
 11
-24.032548671800747
 21
77.944537935835598
  0
LINE
  8
_0-1_
  6
DASHED1
 62
    3
 10
-28.699215338467432
 20
81.277871269169879
 11
-28.699215338467432
 21
77.944537935835598
  0
LINE
  8
_0-1_
  6
DASHED1
 62
    3
 10
-23.36588200513409
 20
81.277871269169879
 11
-23.36588200513409
 21
77.944537935835598
  0
LINE
  8
_0-1_
  6
DASHED1
 62
    3
 10
-29.36588200513409
 20
81.277871269169879
 11
-29.36588200513409
 21
77.944537935835598
  0
LINE
  8
_0-1_
  6
CONTINUOUS
 62
    7
 10
-12.032548671800377
 20
81.277871269168969
 11
-12.032548671800377
 21
-1.3887953974977592
  0
LINE
  8
_0-1_
  6
CONTINUOUS
 62
    7
 10
12.634117994866138
 20
-14.722128730829425
 11
12.634117994866138
 21
-61.388802467211306
  0
LINE
  8
_0-1_
  6
CONTINUOUS
 62
    7
 10
-12.032548671800377
 20
-14.722128730829425
 11
-12.032548671800377
 21
-61.388802467211306
  0
LINE
  8
_0-1_
  6
DASHED1
 62
    3
 10
-12.032548671800377
 20
-73.38879539803078
 11
12.634117994866138
 21
-73.38879539803078
  0
LINE
  8
_0-1_
  6
DASHED1
 62
    3
 10
12.634117994866138
 20
-73.388795397498441
 11
12.634117994866138
 21
-61.388802467211306
  0
LINE
  8
_0-1_
  6
DASHED1
 62
    3
 10
-12.032548671800377
 20
-73.388795397498441
 11
-12.032548671800377
 21
-61.388802467211306
  0
LINE
  8
_0-1_
  6
DASHED1
 62
    3
 10
-12.032548671799582
 20
-63.055462142631612
 11
12.634117994865342
 21
-63.055462142631612
  0
LINE
  8
_0-1_
  6
DASHED1
 62
    3
 10
12.634117994866138
 20
-1.3887953974979865
 11
12.634117994866138
 21
-14.722128730829198
  0
LINE
  8
_0-1_
  6
DASHED1
 62
    3
 10
-12.032548671800377
 20
-1.3887953974977592
 11
-12.032548671800377
 21
-14.722128730829198
  0
LINE
  8
_0-1_
  6
DASHED1
 62
    3
 10
-1.4483797077793596
 20
-1.3887953974977592
 11
2.0499490308448642
 21
-1.3887953974978728
  0
LINE
  8
_0-1_
  6
DASHED1
 62
    3
 10
-1.4483797077802407
 20
-14.722128730829198
 11
2.0499490308448642
 21
-14.722128730829425
  0
LINE
  8
_0-1_
  6
CONTINUOUS
 62
    7
 10
-1.4483797077793596
 20
-1.3887953974977592
 11
-13.365882005133862
 21
-1.3887953974977592
  0
LINE
  8
_0-1_
  6
CONTINUOUS
 62
    7
 10
-13.365882005133862
 20
-1.3887953974977592
 11
-13.365882005133862
 21
-14.722128730829425
  0
LINE
  8
_0-1_
  6
CONTINUOUS
 62
    7
 10
-13.365882005133862
 20
-14.722128730829425
 11
-1.4483797077802407
 21
-14.722128730829425
  0
LINE
  8
_0-1_
  6
CONTINUOUS
 62
    7
 10
2.0499490308448642
 20
-14.722128730829425
 11
13.967451328199623
 21
-14.722128730829425
  0
LINE
  8
_0-1_
  6
CONTINUOUS
 62
    7
 10
13.967451328199623
 20
-14.722128730829425
 11
13.967451328199623
 21
-1.3887953974979865
  0
LINE
  8
_0-1_
  6
CONTINUOUS
 62
    7
 10
13.967451328199623
 20
-1.3887953974979865
 11
2.0499490308448642
 21
-1.3887953974979865
  0
CIRCLE
  8
_0-1_
  6
CONTINUOUS
 62
    7
 10
0.3007846615326528
 20
-8.0554620641645016
 40
2.9999999999992042
  0
LINE
  8
_0-1_
  6
CONTINUOUS
 62
    7
 10
-1.2700352682764944
 20
-10.61134248940148
 11
-1.0317364410467675
 21
-17.435328062988802
  0
LINE
  8
_0-1_
  6
CONTINUOUS
 62
    7
 10
-1.5780655020196761
 20
-11.008413479769061
 11
-1.3648667168321182
 21
-17.113627892007358
  0
LINE
  8
_0-1_
  6
CONTINUOUS
 62
    7
 10
-1.5780655020196761
 20
-11.008413479769061
 11
-1.2700352682764375
 21
-10.611342489403128
  0
LINE
  8
_0-1_
  6
CONTINUOUS
 62
    7
 10
1.8716036313421753
 20
-10.61134248940148
 11
1.6333048041124485
 21
-17.435328062988802
  0
LINE
  8
_0-1_
  6
CONTINUOUS
 62
    7
 10
2.1796338650853571
 20
-11.008413479769061
 11
1.9664350798977992
 21
-17.113627892007358
  0
LINE
  8
_0-1_
  6
CONTINUOUS
 62
    7
 10
2.1796338650853571
 20
-11.008413479769061
 11
1.8716036313421185
 21
-10.611342489403128
  0
ARC
  8
_0-1_
  6
CONTINUOUS
 62
    7
 10
0.3007846615328801
 20
-17.055462064165297
 40
1.6667406666036868
 50
182.00000000015717
 51
357.99999999999534
  0
ARC
  8
_0-1_
  6
CONTINUOUS
 62
    7
 10
0.3007846615328801
 20
-17.388795397498669
 40
1.3333333333333144
 50
182.00000013845937
 51
357.99999842183075
  0
ARC
  8
_0-1_
  6
CONTINUOUS
 62
    7
 10
0.3007846615326528
 20
-8.0554620641645016
 40
3.5000000000002274
 50
302.46702557119556
 51
57.532961169688676
  0
ARC
  8
_0-1_
  6
CONTINUOUS
 62
    7
 10
0.3007846615326528
 20
-8.0554620641645016
 40
3.5000000000002274
 50
122.46703883030847
 51
237.53296116970657
  0
LINE
  8
_0-1_
  6
CONTINUOUS
 62
    7
 10
-1.2700352682764944
 20
-5.4995816389275234
 11
-1.0317364410467675
 21
1.3244039346597987
  0
LINE
  8
_0-1_
  6
CONTINUOUS
 62
    7
 10
-1.5780655020196761
 20
-5.1025106485599423
 11
-1.3648667168321182
 21
1.0027037636783547
  0
LINE
  8
_0-1_
  6
CONTINUOUS
 62
    7
 10
1.8716036313421753
 20
-5.4995816389275234
 11
1.6333048041124485
 21
1.3244039346597987
  0
LINE
  8
_0-1_
  6
CONTINUOUS
 62
    7
 10
2.1796338650853571
 20
-5.1025106485599423
 11
1.9664350798977992
 21
1.0027037636783547
  0
ARC
  8
_0-1_
  6
CONTINUOUS
 62
    7
 10
0.3007846615328801
 20
0.9445379358362942
 40
1.6667406666036868
 50
2.0000000000046847
 51
177.99999999984283
  0
ARC
  8
_0-1_
  6
CONTINUOUS
 62
    7
 10
0.3007846615328801
 20
1.2778712691696654
 40
1.3333333333333144
 50
2.0000015781692517
 51
177.99999986154063
  0
LINE
  8
_0-1_
  6
CONTINUOUS
 62
    7
 10
13.967451324586996
 20
8.611204602502923
 11
13.967451324586996
 21
21.94453793583623
  0
LINE
  8
_0-1_
  6
CONTINUOUS
 62
    7
 10
-13.365882002079665
 20
8.611204602502923
 11
-13.365882002079665
 21
21.94453793583623
  0
LINE
  8
_0-1_
  6
CONTINUOUS
 62
    7
 10
13.967451324586996
 20
21.94453793583623
 11
12.634117994866138
 21
21.94453793583623
  0
LINE
  8
_0-1_
  6
CONTINUOUS
 62
    7
 10
-12.032548671800377
 20
21.94453793583623
 11
-13.365882002079665
 21
21.94453793583623
  0
LINE
  8
_0-1_
  6
CONTINUOUS
 62
    7
 10
13.967451324586996
 20
8.611204602502923
 11
12.634117994866138
 21
8.611204602502923
  0
LINE
  8
_0-1_
  6
CONTINUOUS
 62
    7
 10
-12.032548671800377
 20
8.611204602502923
 11
-13.365882002079665
 21
8.611204602502923
  0
LINE
  8
_0-1_
  6
CONTINUOUS
 62
    7
 10
12.634117994866138
 20
71.000405611105947
 11
-12.032548671800377
 21
71.000405611105947
  0
LINE
  8
_0-1_
  6
CONTINUOUS
 62
    7
 10
-12.032548671800377
 20
-60.141417271496792
 11
12.634117994866138
 21
-60.141417271496792
  0
LINE
  8
_0-1_
  6
CONTINUOUS
 62
    7
 10
-12.032548671799695
 20
-55.274750603053306
 11
12.634117994865342
 21
-55.274750603053306
  0
INSERT
  2
-006-M4T_5_
  8
_0-1_
 10
12.32611799125366
 20
15.277871269168521
 41
-0.6666666666666666
 42
0.6666666666666666
 50
630
  0
LINE
  8
_0-1_
  6
CENTER1
 62
    4
 10
-7.6332917089884447
 20
-8.0554620641645016
 11
8.7288231011219253
 21
-8.0554620641645016
  0
LINE
  8
_0-1_
  6
CENTER1
 62
    4
 10
4.962381294714767
 20
15.277871269168521
 11
16.806626081295384
 21
15.277871269168521
  0
INSERT
  2
-006-M4T_5_
  8
_0-1_
 10
-11.72454962818798
 20
15.277871269168521
 41
0.6666666666666666
 42
0.6666666666666666
 50
-630
  0
LINE
  8
_0-1_
  6
CENTER1
 62
    4
 10
-4.360812931649086
 20
15.277871269168521
 11
-16.205057718229703
 21
15.277871269168521
  0
LINE
  8
_0-1_
  6
CONTINUOUS
 62
    7
 10
12.634117994866138
 20
27.277871269169488
 11
-12.032548671800377
 21
27.277871269169488
  0
LINE
  8
_0-1_
  6
CONTINUOUS
 62
    7
 10
12.634117994866138
 20
5.2778712691694949
 11
-12.032548671800377
 21
5.2778712691694949
  0
LINE
  8
_0-1_
  6
DASHED1
 62
    3
 10
33.634117994866138
 20
77.944512798765174
 11
-33.032548671800832
 21
77.944512798765174
  0
LINE
  8
_0-1_
  6
CONTINUOUS
 62
    5
 10
12.634117994865399
 20
-52.722202730766483
 11
-12.03254867179978
 21
-52.722202730766483
  0
LINE
  8
_0-1_
  6
CONTINUOUS
 62
    5
 10
-12.032548671799809
 20
-52.055536064099854
 11
12.634117994865399
 21
-52.055536064099854
  0
LINE
  8
_0-1_
  6
CONTINUOUS
 62
    5
 10
12.634117994865399
 20
-50.722202730766483
 11
-12.03254867179978
 21
-50.722202730766483
  0
LINE
  8
_0-1_
  6
CONTINUOUS
 62
    5
 10
-12.032548671799809
 20
-50.055536064099854
 11
12.634117994865399
 21
-50.055536064099854
  0
LINE
  8
_0-1_
  6
CONTINUOUS
 62
    5
 10
12.634117994865399
 20
-48.722202730766483
 11
-12.03254867179978
 21
-48.722202730766483
  0
LINE
  8
_0-1_
  6
CONTINUOUS
 62
    5
 10
-12.032548671799809
 20
-48.055536064099854
 11
12.634117994865399
 21
-48.055536064099854
  0
LINE
  8
_0-1_
  6
CONTINUOUS
 62
    5
 10
12.634117994865399
 20
-46.722202730766483
 11
-12.03254867179978
 21
-46.722202730766483
  0
LINE
  8
_0-1_
  6
CONTINUOUS
 62
    5
 10
-12.032548671799809
 20
-46.055536064099854
 11
12.634117994865399
 21
-46.055536064099854
  0
LINE
  8
_0-1_
  6
CONTINUOUS
 62
    5
 10
12.634117994865399
 20
-44.722202730766483
 11
-12.03254867179978
 21
-44.722202730766483
  0
LINE
  8
_0-1_
  6
CONTINUOUS
 62
    5
 10
-12.032548671799809
 20
-44.055536064099854
 11
12.634117994865399
 21
-44.055536064099854
  0
LINE
  8
_0-1_
  6
CONTINUOUS
 62
    5
 10
12.634117994865399
 20
-42.722202730766483
 11
-12.03254867179978
 21
-42.722202730766483
  0
LINE
  8
_0-1_
  6
CONTINUOUS
 62
    5
 10
-12.032548671799809
 20
-42.055536064099854
 11
12.634117994865399
 21
-42.055536064099854
  0
LINE
  8
_0-1_
  6
CONTINUOUS
 62
    5
 10
12.634117994865399
 20
-40.722202730766483
 11
-12.03254867179978
 21
-40.722202730766483
  0
LINE
  8
_0-1_
  6
CONTINUOUS
 62
    5
 10
-12.032548671799809
 20
-40.055536064099854
 11
12.634117994865399
 21
-40.055536064099854
  0
LINE
  8
_0-1_
  6
CONTINUOUS
 62
    5
 10
12.634117994865399
 20
-38.722202730766483
 11
-12.03254867179978
 21
-38.722202730766483
  0
LINE
  8
_0-1_
  6
CONTINUOUS
 62
    5
 10
-12.032548671799809
 20
-38.055536064099854
 11
12.634117994865399
 21
-38.055536064099854
  0
LINE
  8
_0-1_
  6
CONTINUOUS
 62
    5
 10
12.634117994865399
 20
-36.722202730766483
 11
-12.03254867179978
 21
-36.722202730766483
  0
LINE
  8
_0-1_
  6
CONTINUOUS
 62
    5
 10
-12.032548671799809
 20
-36.055536064099854
 11
12.634117994865399
 21
-36.055536064099854
  0
LINE
  8
_0-1_
  6
CONTINUOUS
 62
    5
 10
12.634117994865399
 20
-34.722202730766483
 11
-12.03254867179978
 21
-34.722202730766483
  0
LINE
  8
_0-1_
  6
CONTINUOUS
 62
    5
 10
-12.032548671799809
 20
-34.055536064099854
 11
12.634117994865399
 21
-34.055536064099854
  0
LINE
  8
_0-1_
  6
CONTINUOUS
 62
    5
 10
12.634117994865399
 20
-32.722202730766483
 11
-12.03254867179978
 21
-32.722202730766483
  0
LINE
  8
_0-1_
  6
CONTINUOUS
 62
    5
 10
-12.032548671799809
 20
-32.055536064099854
 11
12.634117994865399
 21
-32.055536064099854
  0
LINE
  8
_0-1_
  6
CONTINUOUS
 62
    5
 10
12.634117994865399
 20
-30.722202730766483
 11
-12.03254867179978
 21
-30.722202730766483
  0
LINE
  8
_0-1_
  6
CONTINUOUS
 62
    5
 10
-12.032548671799809
 20
-30.055536064099854
 11
12.634117994865399
 21
-30.055536064099854
  0
LINE
  8
_0-1_
  6
CONTINUOUS
 62
    5
 10
12.634117994865399
 20
-28.722202730766483
 11
-12.03254867179978
 21
-28.722202730766483
  0
LINE
  8
_0-1_
  6
CONTINUOUS
 62
    5
 10
-12.032548671799809
 20
-28.055536064099854
 11
12.634117994865399
 21
-28.055536064099854
  0
LINE
  8
_0-1_
  6
CONTINUOUS
 62
    5
 10
12.634117994865399
 20
-26.722202730766483
 11
-12.03254867179978
 21
-26.722202730766483
  0
LINE
  8
_0-1_
  6
CONTINUOUS
 62
    5
 10
-12.032548671799809
 20
-26.055536064099854
 11
12.634117994865399
 21
-26.055536064099854
  0
LINE
  8
_0-1_
  6
CONTINUOUS
 62
    5
 10
12.634117994865399
 20
-24.722202730766483
 11
-12.03254867179978
 21
-24.722202730766483
  0
LINE
  8
_0-1_
  6
CONTINUOUS
 62
    5
 10
-12.032548671799809
 20
-24.055536064099854
 11
12.634117994865399
 21
-24.055536064099854
  0
LINE
  8
_0-1_
  6
CONTINUOUS
 62
    5
 10
12.634117994865399
 20
-22.722202730766483
 11
-12.03254867179978
 21
-22.722202730766483
  0
LINE
  8
_0-1_
  6
CONTINUOUS
 62
    5
 10
-12.032548671799809
 20
-22.055536064099854
 11
12.634117994865399
 21
-22.055536064099854
  0
LINE
  8
_0-1_
  6
CONTINUOUS
 62
    5
 10
12.634117994865399
 20
-20.722202730766483
 11
-12.03254867179978
 21
-20.722202730766483
  0
LINE
  8
_0-1_
  6
CONTINUOUS
 62
    5
 10
-12.032548671799809
 20
-20.055536064099854
 11
12.634117994865399
 21
-20.055536064099854
  0
LINE
  8
_0-1_
  6
CONTINUOUS
 62
    5
 10
12.634117994865399
 20
-18.722202730766483
 11
-12.03254867179978
 21
-18.722202730766483
  0
LINE
  8
_0-1_
  6
CONTINUOUS
 62
    5
 10
2.0033854207210666
 20
-16.055536064099854
 11
12.634117994865399
 21
-16.055536064099854
  0
LINE
  8
_0-1_
  6
CONTINUOUS
 62
    5
 10
12.634117994865399
 20
-16.722202730766483
 11
1.9801049077265205
 21
-16.722202730766483
  0
LINE
  8
_0-1_
  6
CONTINUOUS
 62
    5
 10
1.6341549943232181
 20
-18.055536064099854
 11
12.634117994865399
 21
-18.055536064099854
  0
LINE
  8
_0-1_
  6
CONTINUOUS
 62
    5
 10
-12.032548671799809
 20
-18.055536064099854
 11
-1.0324931686408192
 21
-18.055536064099854
  0
LINE
  8
_0-1_
  6
CONTINUOUS
 62
    5
 10
-1.3785355846618401
 20
-16.722202730766483
 11
-12.03254867179978
 21
-16.722202730766483
  0
LINE
  8
_0-1_
  6
CONTINUOUS
 62
    5
 10
-12.032548671799809
 20
-16.055536064099854
 11
-1.4018160976555905
 21
-16.055536064099854
  0
LINE
  8
_0-1_
  6
CONTINUOUS
 62
    5
 10
-12.032548671800377
 20
-54.055536064099854
 11
12.63411799486537
 21
-54.055536064099854
  0
LINE
  8
_0-1_
  6
CONTINUOUS
 62
    7
 10
33.634117994866138
 20
73.277871269169708
 11
-33.03254867179924
 21
73.277871269169708
  0
LINE
  8
_0-1_
  6
CONTINUOUS
 62
    7
 10
33.634117994866138
 20
73.277871269169708
 11
33.634117994866138
 21
81.277871269168969
  0
LINE
  8
_0-1_
  6
CONTINUOUS
 62
    7
 10
-33.032548671800832
 20
78.611179465288018
 11
33.634117994866138
 21
78.611179465288018
  0
LINE
  8
_0-1_
  6
CENTER1
 62
    4
 10
26.967451328199395
 20
83.525416223010069
 11
26.967451328199395
 21
75.177125352613473
  0
LINE
  8
_0-1_
  6
CENTER1
 62
    4
 10
-26.36588200513409
 20
83.525416223010069
 11
-26.36588200513409
 21
75.177125352613473
  0
LINE
  8
_0-1_
  6
CONTINUOUS
 62
  136
 10
12.634117994866138
 20
75.944512798621361
 11
-12.032548671800377
 21
75.944512798621361
  0
ENDBLK
  0
ENDSEC
  0
SECTION
  2
ENTITIES
  0
LINE
  8
ADD_LINE
  6
DOT
 62
    9
 10
538.67385039458418
 20
50
 11
538.67385039458418
 21
25
  0
LINE
  8
ADD_LINE
  6
DOT
 62
    9
 10
578.67385039458418
 20
50
 11
578.67385039458418
 21
25
  0
LINE
  8
ADD_LINE
  6
DOT
 62
    9
 10
820.51077559187615
 20
50
 11
820.51077559187615
 21
25
  0
LINE
  8
ADD_LINE
  6
DOT
 62
    9
 10
60.54106559187619
 20
50
 11
60.54106559187619
 21
25
  0
TEXT
  8
_f-a__
 62
    7
 10
289.60745799323013
 20
50
 40
6
 41
0.8333333333333333
 50
0
  1
名　　称
  0
TEXT
  8
_f-a__
 62
    7
 10
548.67385039458418
 20
50
 40
6
 41
0.8333333333333333
 50
0
  1
縮　　尺
  0
TEXT
  8
_f-a__
 62
    7
 10
689.59231299323017
 20
50
 40
6
 41
0.8333333333333333
 50
0
  1
品　　番
  0
LINE
  8
ADD_LINE
  6
DOT
 62
    9
 10
60.54106559187619
 20
50
 11
820.51077559187615
 21
50
  0
LINE
  8
ADD_LINE
  6
DOT
 62
    9
 10
60.54106559187619
 20
25
 11
820.51077559187615
 21
25
  0
TEXT
  8
_0-a__
 62
    3
 10
259.60745799323018
 20
32.5
 40
10
 41
0.8
 50
0
  1
ジョイントＡタイプ
  0
TEXT
  8
_0-a__
 62
    3
 10
552.17385039458418
 20
32.5
 40
10
 41
0.8
 50
0
  1
1/2
  0
TEXT
  8
_0-a__
 62
    3
 10
684.09231299323017
 20
32.5
 40
10
 41
0.8
 50
0
  1
JA-NT12
  0
INSERT
  2
-003-JEJ-12N
  8
_0-b__
 10
662.00220165268422
 20
349.12565247592681
 41
0.5
 42
0.5
 50
90
  0
INSERT
  2
-001-NT-12N
  8
_0-b__
 10
674.07087492935079
 20
349.02485560257219
 41
0.5
 42
0.5
 50
90
  0
INSERT
  2
-002-OUT-12N
  8
_0-b__
 10
720.72220466005319
 20
318.98534709247679
 41
0.5
 42
0.5
 50
90
  0
INSERT
  2
-000-IN-12-12N
  8
_0-b__
 10
720.72016228276584
 20
410.31944384892756
 41
0.5
 42
0.5
 50
90
  0
ARC
  8
_0-7__
  6
CONTINUOUS
 62
    5
 10
735.89596853311832
 20
349.60873344160041
 40
6.6561605269268078
 50
139.23242560987006
 51
220.76757439013016
  0
POINT
  8
_0-9__
 62
    4
 10
627.65482733199804
 20
462.19011189379648
  0
POINT
  8
_0-9__
 62
    4
 10
737.65482733199792
 20
462.19011189379648
  0
LINE
  8
_0-9__
  6
CONTINUOUS
 62
    4
 10
627.65482733199804
 20
464.19011189379648
 11
627.65482733199804
 21
447.19011189379648
  0
LINE
  8
_0-9__
  6
CONTINUOUS
 62
    4
 10
737.65482733199792
 20
464.19011189379648
 11
737.65482733199792
 21
442.69011189379648
  0
LINE
  8
_0-9__
  6
CONTINUOUS
 62
    4
 10
627.65482733199804
 20
462.19011189379648
 11
737.65482733199792
 21
462.19011189379648
  0
TEXT
  8
_0-9__
 62
    3
 10
676.15482733199792
 20
463.19011189379648
 40
10
 41
0.8
 50
0
  1
110
  0
LINE
  8
_0-1_
  6
CENTER1
 62
    4
 10
601.76280445099076
 20
348.6901118937966
 11
747.27088434955135
 21
348.6901118937966
  0
POINT
  8
_0-9__
 62
    4
 10
608.15482733188787
 20
204.85150796239427
  0
POINT
  8
_0-9__
 62
    4
 10
737.65482733199792
 20
204.85150796239427
  0
LINE
  8
_0-9__
  6
CONTINUOUS
 62
    4
 10
608.15482733188787
 20
202.85150796239427
 11
608.15482733188787
 21
250.19011189380413
  0
LINE
  8
_0-9__
  6
CONTINUOUS
 62
    4
 10
737.65482733199792
 20
202.85150796239427
 11
737.65482733199792
 21
313.27764758536307
  0
LINE
  8
_0-9__
  6
CONTINUOUS
 62
    4
 10
608.15482733188787
 20
204.85150796239427
 11
737.65482733199792
 21
204.85150796239427
  0
TEXT
  8
_0-9__
 62
    3
 10
661.9048273319429
 20
205.85150796239427
 40
10
 41
0.8
 50
0
  1
129.5
  0
POINT
  8
_0-9__
 62
    4
 10
608.15482733188787
 20
220.85150796239427
  0
POINT
  8
_0-9__
 62
    4
 10
647.724460173632
 20
220.85150796239427
  0
LINE
  8
_0-9__
  6
CONTINUOUS
 62
    4
 10
647.724460173632
 20
218.85150796239427
 11
647.724460173632
 21
249.19011189379648
  0
LINE
  8
_0-9__
  6
CONTINUOUS
 62
    4
 10
608.15482733188787
 20
220.85150796239427
 11
647.724460173632
 21
220.85150796239427
  0
TEXT
  8
_0-9__
 62
    3
 10
619.18964375275993
 20
221.85150796239427
 40
10
 41
0.8
 50
0
  1
39.6
  0
POINT
  8
_0-9__
 62
    4
 10
737.65482733199792
 20
220.85150796239427
  0
LINE
  8
_0-9__
  6
CONTINUOUS
 62
    4
 10
647.724460173632
 20
220.85150796239427
 11
737.65482733199792
 21
220.85150796239427
  0
TEXT
  8
_0-9__
 62
    3
 10
683.93964375281496
 20
221.85150796239427
 40
10
 41
0.8
 50
0
  1
89.9
  0
POINT
  8
_0-9__
 62
    4
 10
779.27088434955135
 20
251.19011189379648
  0
POINT
  8
_0-9__
 62
    4
 10
779.27088434955135
 20
446.19011189379648
  0
LINE
  8
_0-9__
  6
CONTINUOUS
 62
    4
 10
781.27088434955135
 20
251.19011189379648
 11
648.03105564913642
 21
251.19011189379648
  0
LINE
  8
_0-9__
  6
CONTINUOUS
 62
    4
 10
781.27088434955135
 20
446.19011189379648
 11
734.15482733199792
 21
446.19011189379648
  0
LINE
  8
_0-9__
  6
CONTINUOUS
 62
    4
 10
779.27088434955135
 20
251.19011189379648
 11
779.27088434955135
 21
446.19011189379648
  0
TEXT
  8
_0-9__
 62
    3
 10
778.27088434955135
 20
342.19011189379648
 40
10
 41
0.8
 50
90
  1
195
  0
POINT
  8
_0-9__
 62
    4
 10
763.27088434955135
 20
251.19011189379648
  0
POINT
  8
_0-9__
 62
    4
 10
763.27088434955135
 20
312.36716548415774
  0
LINE
  8
_0-9__
  6
CONTINUOUS
 62
    4
 10
765.27088434955135
 20
312.36716548415774
 11
739.65482733199792
 21
312.36716548415774
  0
LINE
  8
_0-9__
  6
CONTINUOUS
 62
    4
 10
763.27088434955135
 20
251.19011189379648
 11
763.27088434955135
 21
312.36716548415774
  0
TEXT
  8
_0-9__
 62
    3
 10
762.27088434955135
 20
273.02863868897714
 40
10
 41
0.8
 50
90
  1
61.2
  0
POINT
  8
_0-9__
 62
    4
 10
763.27088434955135
 20
446.19011189379648
  0
LINE
  8
_0-9__
  6
CONTINUOUS
 62
    4
 10
763.27088434955135
 20
312.36716548415774
 11
763.27088434955135
 21
446.19011189379648
  0
TEXT
  8
_0-9__
 62
    3
 10
762.27088434955135
 20
368.27863868897708
 40
10
 41
0.8
 50
90
  1
133.8
  0
POINT
  8
_0-9__
 62
    4
 10
611.65482733199804
 20
431.19011189379648
  0
POINT
  8
_0-9__
 62
    4
 10
611.65482733199804
 20
446.19011189379648
  0
LINE
  8
_0-9__
  6
CONTINUOUS
 62
    4
 10
609.65482733199804
 20
431.19011189379648
 11
626.65482733199804
 21
431.19011189379648
  0
LINE
  8
_0-9__
  6
CONTINUOUS
 62
    4
 10
609.65482733199804
 20
446.19011189379648
 11
626.65482733199804
 21
446.19011189379648
  0
LINE
  8
_0-9__
  6
CONTINUOUS
 62
    4
 10
611.65482733199804
 20
431.19011189379648
 11
611.65482733199804
 21
446.19011189379648
  0
TEXT
  8
_0-9__
 62
    3
 10
610.65482733199804
 20
434.44011189379648
 40
10
 41
0.8
 50
90
  1
15
  0
POINT
  8
_0-9__
 62
    4
 10
592.15482733188787
 20
251.19011189379648
  0
POINT
  8
_0-9__
 62
    4
 10
592.15482733188787
 20
263.69011189379654
  0
LINE
  8
_0-9__
  6
CONTINUOUS
 62
    4
 10
590.15482733188787
 20
251.19011189379648
 11
607.15482733188787
 21
251.19011189379648
  0
LINE
  8
_0-9__
  6
CONTINUOUS
 62
    4
 10
590.15482733188787
 20
263.69011189379654
 11
607.15482733195779
 21
263.69011189379654
  0
LINE
  8
_0-9__
  6
CONTINUOUS
 62
    4
 10
592.15482733188787
 20
251.19011189379648
 11
592.15482733188787
 21
263.69011189379654
  0
TEXT
  8
_0-9__
 62
    3
 10
591.15482733188787
 20
248.69011189379654
 40
10
 41
0.8
 50
90
  1
12.5
  0
POINT
  8
_0-9__
 62
    4
 10
735.65482733199792
 20
402.09363257708179
  0
POINT
  8
_0-9__
 62
    4
 10
737.65482733199792
 20
402.09363257708179
  0
LINE
  8
_0-9__
  6
CONTINUOUS
 62
    4
 10
735.65482733199792
 20
402.09363257708179
 11
737.65482733199792
 21
402.09363257708179
  0
TEXT
  8
_0-9__
 62
    3
 10
740.04218186548997
 20
403.09363257708179
 40
10
 41
0.8
 50
0
  1
2
  0
LINE
  8
_0-a__
  6
CONTINUOUS
 62
    4
 10
699.16746193376616
 20
382.98190112390921
 11
613.90079933611025
 21
382.98190112390921
  0
LINE
  8
_0-a__
  6
CONTINUOUS
 62
    4
 10
729.56065041032821
 20
351.65036196985653
 11
724.69862038103111
 21
355.1661281136553
  0
LINE
  8
_0-a__
  6
CONTINUOUS
 62
    4
 10
729.56065041032821
 20
351.65036196985653
 11
726.19428688493826
 21
356.61701770105765
  0
LINE
  8
_0-a__
  6
CONTINUOUS
 62
    4
 10
729.56065041032821
 20
351.65036196985653
 11
699.16746193376616
 21
382.98190112390921
  0
TEXT
  8
_0-a__
 62
    3
 10
616.61190468278915
 20
371.11524005213192
 40
10
 41
0.8
 50
0
  1
(長手方向全て)
  0
TEXT
  8
_0-a__
 62
    3
 10
616.61190468278915
 20
384.84856982508109
 40
10
 41
0.8
 50
0
  1
召し合わせ部ｼｰﾘﾝｸﾞ
  0
POINT
  8
_0-9__
 62
    4
 10
730.85482733199797
 20
402.09363257708179
  0
POINT
  8
_0-9__
 62
    4
 10
732.65482002702765
 20
402.09363257708179
  0
LINE
  8
_0-9__
  6
CONTINUOUS
 62
    4
 10
730.85482733199797
 20
402.09363257708179
 11
732.65482002702765
 21
402.09363257708179
  0
TEXT
  8
_0-9__
 62
    3
 10
713.44592837133564
 20
403.09363257708179
 40
10
 41
0.8
 50
0
  1
1.8
  0
LINE
  8
_0-a__
  6
CONTINUOUS
 62
    4
 10
643.76542335954719
 20
491.28569598474883
 11
612.49876076189116
 21
491.28569598474883
  0
LINE
  8
_0-a__
  6
CONTINUOUS
 62
    4
 10
665.09330421892219
 20
446.19011493006184
 11
661.62514931169517
 21
451.08623309412383
  0
LINE
  8
_0-a__
  6
CONTINUOUS
 62
    4
 10
665.09330421892219
 20
446.19011493006184
 11
663.50887733903915
 21
451.97713275232684
  0
LINE
  8
_0-a__
  6
CONTINUOUS
 62
    4
 10
665.09330421892219
 20
446.19011493006184
 11
643.76542335954719
 21
491.28569598474883
  0
TEXT
  8
_0-a__
 62
    3
 10
615.20986610857017
 20
493.15236468592082
 40
10
 41
0.8
 50
0
  1
外押え
  0
LINE
  8
_0-a__
  6
CONTINUOUS
 62
    4
 10
690.19120460954719
 20
317.84024615564749
 11
658.92454201189116
 21
317.84024615564749
  0
LINE
  8
_0-a__
  6
CONTINUOUS
 62
    4
 10
706.43949562517219
 20
299.35652346887991
 11
701.75577980486014
 21
303.1065578011553
  0
LINE
  8
_0-a__
  6
CONTINUOUS
 62
    4
 10
706.43949562517219
 20
299.35652346887991
 11
703.32081276384429
 21
304.48233027735159
  0
LINE
  8
_0-a__
  6
CONTINUOUS
 62
    4
 10
706.43949562517219
 20
299.35652346887991
 11
690.19120460954719
 21
317.84024615564749
  0
TEXT
  8
_0-a__
 62
    3
 10
661.63564735857017
 20
319.7069110421221
 40
10
 41
0.8
 50
0
  1
内押え
  0
LINE
  8
_0-3__
  6
DASHED1
 62
    3
 10
293.57521729719463
 20
431.19011189379648
 11
293.57521729719463
 21
443.69011189379648
  0
LINE
  8
_0-3__
  6
DASHED1
 62
    3
 10
287.57521729719463
 20
431.19011189379648
 11
287.57521729719463
 21
443.69011189379637
  0
LINE
  8
_0-3__
  6
DASHED1
 62
    3
 10
390.57521729719485
 20
256.19011189383707
 11
390.57521729719485
 21
273.69011189379643
  0
LINE
  8
_0-3__
  6
DASHED1
 62
    3
 10
190.57521729719474
 20
256.19011189383696
 11
190.57521729719474
 21
273.69011189379626
  0
LINE
  8
_0-2__
  6
CONTINUOUS
 62
    7
 10
190.57521729719474
 20
273.69011189379626
 11
190.57521729719474
 21
426.69011189369644
  0
LINE
  8
_0-3__
  6
DASHED1
 62
    3
 10
190.57521729719463
 20
426.69011189369644
 11
190.57521729719463
 21
441.19011189375613
  0
LINE
  8
_0-2__
  6
CONTINUOUS
 62
    7
 10
390.57521729719474
 20
273.69011189379643
 11
390.57521729719474
 21
426.69011189369655
  0
LINE
  8
_0-3__
  6
DASHED1
 62
    3
 10
390.57521729719468
 20
426.69011189369655
 11
390.57521729719468
 21
441.1901118937563
  0
LINE
  8
_0-3__
  6
DASHED1
 62
    3
 10
287.57521729719463
 20
441.19011189375618
 11
190.57521729719463
 21
441.19011189375618
  0
LINE
  8
_0-3__
  6
DASHED1
 62
    3
 10
390.57521729719468
 20
441.19011189375624
 11
293.57521729719463
 21
441.19011189375624
  0
LINE
  8
_0-3__
  6
DASHED1
 62
    3
 10
287.5752172971948
 20
256.19011189383696
 11
190.57521729719474
 21
256.19011189383696
  0
LINE
  8
_0-3__
  6
DASHED1
 62
    3
 10
390.57521729719485
 20
256.19011189383701
 11
293.5752172971948
 21
256.19011189383701
  0
LINE
  8
_0-2__
  6
CONTINUOUS
 62
    7
 10
340.57521729719463
 20
446.19011189379648
 11
240.5752172971946
 21
446.19011189379648
  0
LINE
  8
_0-2__
  6
CONTINUOUS
 62
    7
 10
340.57521729719474
 20
251.19011189379646
 11
240.57521729719477
 21
251.19011189379646
  0
LINE
  8
_0-2__
  6
CONTINUOUS
 62
    7
 10
240.5752172971946
 20
431.19011189379643
 11
240.5752172971946
 21
446.19011189379643
  0
LINE
  8
_0-2__
  6
CONTINUOUS
 62
    7
 10
240.5752172971946
 20
431.19011189379648
 11
340.57521729719463
 21
431.19011189379648
  0
LINE
  8
_0-2__
  6
CONTINUOUS
 62
    7
 10
340.57521729719463
 20
431.19011189379648
 11
340.57521729719463
 21
446.19011189379648
  0
LINE
  8
_0-2__
  6
CONTINUOUS
 62
    7
 10
340.57521729719474
 20
251.19011189379646
 11
340.57521729719474
 21
263.69011189379648
  0
LINE
  8
_0-2__
  6
CONTINUOUS
 62
    7
 10
240.57521729719477
 20
263.69011189379643
 11
340.5752172971948
 21
263.69011189379643
  0
LINE
  8
_0-2__
  6
CONTINUOUS
 62
    7
 10
240.57521729719477
 20
251.19011189379646
 11
240.57521729719477
 21
263.69011189379637
  0
LINE
  8
_0-3__
  6
DASHED1
 62
    3
 10
340.57521729719468
 20
265.38218049699367
 11
340.57521729719468
 21
428.60135393470182
  0
LINE
  8
_0-3__
  6
DASHED1
 62
    3
 10
240.57521729719468
 20
265.38218049699367
 11
240.57521729719468
 21
428.60135393470176
  0
LINE
  8
_0-3__
  6
DASHED1
 62
    3
 10
287.5752172971948
 20
253.69011189379631
 11
240.57521729719477
 21
253.69011189379631
  0
LINE
  8
_0-3__
  6
DASHED1
 62
    3
 10
287.5752172971948
 20
253.6901118937964
 11
287.5752172971948
 21
263.69011189379637
  0
LINE
  8
_0-3__
  6
DASHED1
 62
    3
 10
287.5752172971948
 20
261.69011189379637
 11
240.57521729719477
 21
261.69011189379637
  0
LINE
  8
_0-3__
  6
DASHED1
 62
    3
 10
293.5752172971948
 20
256.19011189383696
 11
287.5752172971948
 21
256.19011189383696
  0
LINE
  8
_0-3__
  6
DASHED1
 62
    3
 10
293.5752172971948
 20
253.6901118937964
 11
293.5752172971948
 21
263.69011189379637
  0
LINE
  8
_0-3__
  6
DASHED1
 62
    3
 10
340.57521729719474
 20
253.6901118937964
 11
293.5752172971948
 21
253.6901118937964
  0
LINE
  8
_0-3__
  6
DASHED1
 62
    3
 10
340.5752172971948
 20
261.69011189379648
 11
293.5752172971948
 21
261.69011189379648
  0
LINE
  8
_0-3__
  6
DASHED1
 62
    3
 10
287.57521729719463
 20
433.69011189379637
 11
240.5752172971946
 21
433.69011189379637
  0
LINE
  8
_0-3__
  6
DASHED1
 62
    3
 10
293.57521729719463
 20
433.69011189379643
 11
340.57521729719463
 21
433.69011189379643
  0
LINE
  8
_0-3__
  6
DASHED1
 62
    3
 10
293.57521729719463
 20
441.19011189375618
 11
287.57521729719463
 21
441.19011189375618
  0
LINE
  8
_0-3__
  6
DASHED1
 62
    3
 10
293.57521729719463
 20
443.69011189379648
 11
340.57521729719463
 21
443.69011189379648
  0
LINE
  8
_0-3__
  6
DASHED1
 62
    3
 10
287.57521729719463
 20
443.69011189379637
 11
240.5752172971946
 21
443.69011189379637
  0
LINE
  8
_0-1_
  6
CENTER1
 62
    4
 10
290.57521729719474
 20
236.85150796239427
 11
290.57521729719474
 21
457.9872022217661
  0
POINT
  8
_0-9__
 62
    4
 10
240.57521729719477
 20
204.85150796239427
  0
POINT
  8
_0-9__
 62
    4
 10
340.5752172971948
 20
204.85150796239427
  0
LINE
  8
_0-9__
  6
CONTINUOUS
 62
    4
 10
240.57521729719477
 20
202.85150796239427
 11
240.57521729719477
 21
249.19011189379646
  0
LINE
  8
_0-9__
  6
CONTINUOUS
 62
    4
 10
340.5752172971948
 20
202.85150796239427
 11
340.5752172971948
 21
249.19011189379646
  0
LINE
  8
_0-9__
  6
CONTINUOUS
 62
    4
 10
240.57521729719477
 20
204.85150796239427
 11
340.5752172971948
 21
204.85150796239427
  0
TEXT
  8
_0-9__
 62
    3
 10
284.0752172971948
 20
205.85150796239427
 40
10
 41
0.8
 50
0
  1
100
  0
POINT
  8
_0-9__
 62
    4
 10
190.57521729719474
 20
188.85150796239427
  0
POINT
  8
_0-9__
 62
    4
 10
390.57521729719485
 20
188.85150796239427
  0
LINE
  8
_0-9__
  6
CONTINUOUS
 62
    4
 10
190.57521729719474
 20
186.85150796239427
 11
190.57521729719474
 21
254.19011189383696
  0
LINE
  8
_0-9__
  6
CONTINUOUS
 62
    4
 10
390.57521729719485
 20
186.85150796239427
 11
390.57521729719485
 21
254.19011189383701
  0
LINE
  8
_0-9__
  6
CONTINUOUS
 62
    4
 10
190.57521729719474
 20
188.85150796239427
 11
390.57521729719485
 21
188.85150796239427
  0
TEXT
  8
_0-9__
 62
    3
 10
284.0752172971948
 20
189.85150796239427
 40
10
 41
0.8
 50
0
  1
200
  0
POINT
  8
_0-9__
 62
    4
 10
287.5752172971948
 20
220.85150796239427
  0
POINT
  8
_0-9__
 62
    4
 10
293.5752172971948
 20
220.85150796239427
  0
LINE
  8
_0-9__
  6
CONTINUOUS
 62
    4
 10
287.5752172971948
 20
218.85150796239427
 11
287.5752172971948
 21
251.69011189379631
  0
LINE
  8
_0-9__
  6
CONTINUOUS
 62
    4
 10
293.5752172971948
 20
218.85150796239427
 11
293.5752172971948
 21
251.6901118937964
  0
LINE
  8
_0-9__
  6
CONTINUOUS
 62
    4
 10
287.5752172971948
 20
220.85150796239427
 11
293.5752172971948
 21
220.85150796239427
  0
TEXT
  8
_0-9__
 62
    3
 10
288.5752172971948
 20
221.85150796239427
 40
10
 41
0.8
 50
0
  1
6
  0
LINE
  8
_0-a__
  6
CONTINUOUS
 62
    4
 10
331.02749729743402
 20
485.50972552576479
 11
362.29416370978754
 21
485.50972552576479
  0
LINE
  8
_0-a__
  6
CONTINUOUS
 62
    4
 10
308.90451145759033
 20
446.19011493006184
 11
310.89392948737543
 21
451.85069842615582
  0
LINE
  8
_0-a__
  6
CONTINUOUS
 62
    4
 10
308.90451145759033
 20
446.19011493006184
 11
312.70998478522699
 21
450.82890887537383
  0
LINE
  8
_0-a__
  6
CONTINUOUS
 62
    4
 10
308.90451145759033
 20
446.19011493006184
 11
331.02749729743402
 21
485.50972552576479
  0
TEXT
  8
_0-a__
 62
    3
 10
333.73861027350824
 20
487.37639422693684
 40
10
 41
0.8
 50
0
  1
外押え
  0
LINE
  8
_0-2__
  6
CONTINUOUS
 62
    7
 10
293.57521729719474
 20
263.69011189379637
 11
293.57521729719474
 21
273.69011189379677
  0
LINE
  8
_0-2__
  6
CONTINUOUS
 62
    7
 10
287.57521729719474
 20
263.69011189379637
 11
287.57521729719474
 21
273.69011189379643
  0
LINE
  8
_0-2__
  6
CONTINUOUS
 62
    7
 10
293.57521729719474
 20
426.69011189369661
 11
293.57521729719474
 21
431.19011189379648
  0
LINE
  8
_0-2__
  6
CONTINUOUS
 62
    7
 10
287.57521729719474
 20
426.69011189369661
 11
287.57521729719474
 21
431.19011189379648
  0
LINE
  8
_0-3__
  6
DASHED1
 62
    3
 10
293.57521729719474
 20
277.56922304509004
 11
293.57521729719474
 21
422.57066386410395
  0
LINE
  8
_0-3__
  6
DASHED1
 62
    3
 10
287.57521729719474
 20
277.56922304509004
 11
287.57521729719474
 21
422.57066386410395
  0
LINE
  8
_0-1_
  6
RAND3
 62
    5
 10
390.57521729719474
 20
345.26231326511214
 11
190.57521729719474
 21
345.26231326511214
  0
LINE
  8
_0-1_
  6
RAND3
 62
    5
 10
390.57521729719474
 20
353.95515361808873
 11
190.57521729719474
 21
353.95515361808873
  0
LINE
  8
_0-2__
  6
CONTINUOUS
 62
    7
 10
387.25639121835297
 20
314.51938327625214
 11
193.344888034419
 21
314.51938327625214
  0
LINE
  8
_0-2__
  6
CONTINUOUS
 62
    7
 10
340.57521729719463
 20
443.6901118937966
 11
420.07521729719463
 21
443.6901118937966
  0
LINE
  8
_0-2__
  6
CONTINUOUS
 62
    7
 10
340.57521729719463
 20
433.69011189379648
 11
420.07521729719463
 21
433.69011189379648
  0
LINE
  8
_0-2__
  6
CONTINUOUS
 62
    7
 10
240.5752172971946
 20
433.69011189379637
 11
161.07521729719463
 21
433.69011189379637
  0
LINE
  8
_0-2__
  6
CONTINUOUS
 62
    7
 10
240.5752172971946
 20
443.69011189379631
 11
161.07521729719463
 21
443.69011189379631
  0
LINE
  8
_0-2__
  6
CONTINUOUS
 62
    7
 10
287.5752172971948
 20
273.69011189379643
 11
60.706016567608856
 21
273.69011189379643
  0
LINE
  8
_0-2__
  6
CONTINUOUS
 62
    7
 10
240.57521729719477
 20
261.69011189379631
 11
60.706016567608856
 21
261.69011189379631
  0
LINE
  8
_0-2__
  6
CONTINUOUS
 62
    7
 10
240.57521729719477
 20
253.69011189379623
 11
60.706016567608856
 21
253.69011189379623
  0
LINE
  8
_0-2__
  6
CONTINUOUS
 62
    7
 10
120.07521729719463
 20
433.69011189379637
 11
60.706016567608856
 21
433.69011189379637
  0
LINE
  8
_0-2__
  6
CONTINUOUS
 62
    7
 10
120.07521729719463
 20
443.69011189379631
 11
60.706016567608856
 21
443.69011189379631
  0
LINE
  8
_0-7__
  6
CONTINUOUS
 62
  136
 10
422.0752172971948
 20
312.71349486783254
 11
390.56676239359115
 21
312.71349486783254
  0
LINE
  8
_0-7__
  6
CONTINUOUS
 62
  136
 10
422.0752172971948
 20
315.50713472248719
 11
390.57521729719474
 21
315.50713472248719
  0
LINE
  8
_0-7__
  6
CONTINUOUS
 62
  136
 10
422.0752172971948
 20
317.30006947077595
 11
390.57521729719474
 21
317.30006947077595
  0
LINE
  8
_0-7__
  6
CONTINUOUS
 62
  136
 10
422.0752172971948
 20
318.79515472339824
 11
390.57521729719474
 21
318.79515472339824
  0
LINE
  8
_0-7__
  6
CONTINUOUS
 62
  136
 10
190.57521729719474
 20
312.71349486783254
 11
159.07521729719485
 21
312.71349486783254
  0
LINE
  8
_0-7__
  6
CONTINUOUS
 62
  136
 10
122.0752172971948
 20
312.71349486783254
 11
60.706016567608856
 21
312.71349486783254
  0
LINE
  8
_0-7__
  6
CONTINUOUS
 62
  136
 10
190.57521729719474
 20
315.50713472248719
 11
159.07521729719485
 21
315.50713472248719
  0
LINE
  8
_0-7__
  6
CONTINUOUS
 62
  136
 10
122.0752172971948
 20
315.50713472248719
 11
60.714471471212448
 21
315.50713472248719
  0
LINE
  8
_0-7__
  6
CONTINUOUS
 62
  136
 10
190.57521729719474
 20
317.30006947077595
 11
159.07521729719485
 21
317.30006947077595
  0
LINE
  8
_0-7__
  6
CONTINUOUS
 62
  136
 10
122.0752172971948
 20
317.30006947077595
 11
60.714471471212448
 21
317.30006947077595
  0
LINE
  8
_0-7__
  6
CONTINUOUS
 62
  136
 10
190.57521729719474
 20
318.79515472339824
 11
159.07521729719485
 21
318.79515472339824
  0
LINE
  8
_0-7__
  6
CONTINUOUS
 62
  136
 10
122.0752172971948
 20
318.79515472339824
 11
60.714471471212448
 21
318.79515472339824
  0
LINE
  8
_0-1_
  6
CENTER1
 62
    4
 10
512.86614652281298
 20
348.6901118937966
 11
60.706016567608856
 21
348.6901118937966
  0
LINE
  8
_0-2__
  6
CONTINUOUS
 62
    7
 10
461.07521729719463
 20
433.69011189379648
 11
512.86614652281298
 21
433.69011189379648
  0
LINE
  8
_0-2__
  6
CONTINUOUS
 62
    7
 10
461.07521729719463
 20
443.6901118937966
 11
512.86614652281298
 21
443.6901118937966
  0
LINE
  8
_0-2__
  6
CONTINUOUS
 62
    7
 10
512.86614652281298
 20
253.69011189379674
 11
340.57521729719474
 21
253.69011189379674
  0
LINE
  8
_0-2__
  6
CONTINUOUS
 62
    7
 10
512.86614652281298
 20
261.69011189379677
 11
340.5752172971948
 21
261.69011189379677
  0
LINE
  8
_0-2__
  6
CONTINUOUS
 62
    7
 10
512.86614652281298
 20
273.69011189379677
 11
293.5752172971948
 21
273.69011189379677
  0
LINE
  8
_0-7__
  6
CONTINUOUS
 62
  136
 10
512.86614652281298
 20
312.71349486783254
 11
459.07521729719485
 21
312.71349486783254
  0
LINE
  8
_0-7__
  6
CONTINUOUS
 62
  136
 10
512.86614652281298
 20
315.50713472248719
 11
459.07521729719485
 21
315.50713472248719
  0
LINE
  8
_0-7__
  6
CONTINUOUS
 62
  136
 10
512.86614652281298
 20
317.30006947077595
 11
459.07521729719485
 21
317.30006947077595
  0
LINE
  8
_0-7__
  6
CONTINUOUS
 62
  136
 10
512.86614652281298
 20
318.79515472339824
 11
459.07521729719485
 21
318.79515472339824
  0
LINE
  8
_0-1_
  6
CENTER1
 62
    4
 10
140.57521729719474
 20
236.85150796239427
 11
140.57521729719474
 21
490.82051595176745
  0
LINE
  8
_0-1_
  6
CENTER1
 62
    4
 10
440.57521729719474
 20
236.85150796239427
 11
440.57521729719474
 21
490.82051595176745
  0
POINT
  8
_0-9__
 62
    4
 10
140.57521729719474
 20
527.38470973639733
  0
POINT
  8
_0-9__
 62
    4
 10
290.57521729719474
 20
527.38470973639733
  0
LINE
  8
_0-9__
  6
CONTINUOUS
 62
    4
 10
140.57521729719474
 20
529.38470973639733
 11
140.57521729719474
 21
492.82051595176745
  0
LINE
  8
_0-9__
  6
CONTINUOUS
 62
    4
 10
290.57521729719474
 20
529.38470973639733
 11
290.57521729719474
 21
459.9872022217661
  0
POINT
  8
_0-9__
 62
    4
 10
440.57521729719474
 20
527.38470973639733
  0
LINE
  8
_0-9__
  6
CONTINUOUS
 62
    4
 10
440.57521729719474
 20
529.38470973639733
 11
440.57521729719474
 21
492.82051595176745
  0
POINT
  8
_0-9__
 62
    4
 10
100.57521729719451
 20
511.38470973639727
  0
POINT
  8
_0-9__
 62
    4
 10
140.57521729719474
 20
511.38470973639727
  0
LINE
  8
_0-9__
  6
CONTINUOUS
 62
    4
 10
100.57521729719451
 20
513.38470973639733
 11
100.57521729719451
 21
490.12950374913453
  0
LINE
  8
_0-9__
  6
CONTINUOUS
 62
    4
 10
100.57521729719451
 20
511.38470973639727
 11
140.57521729719474
 21
511.38470973639727
  0
TEXT
  8
_0-9__
 62
    3
 10
116.32521729719463
 20
512.38470973639733
 40
10
 41
0.8
 50
0
  1
40
  0
POINT
  8
_0-9__
 62
    4
 10
180.57521729719468
 20
511.38470973639727
  0
LINE
  8
_0-9__
  6
CONTINUOUS
 62
    4
 10
180.57521729719468
 20
513.38470973639733
 11
180.57521729719468
 21
490.12950374913447
  0
LINE
  8
_0-9__
  6
CONTINUOUS
 62
    4
 10
140.57521729719474
 20
511.38470973639727
 11
180.57521729719468
 21
511.38470973639727
  0
TEXT
  8
_0-9__
 62
    3
 10
156.32521729719468
 20
512.38470973639733
 40
10
 41
0.8
 50
0
  1
40
  0
POINT
  8
_0-9__
 62
    4
 10
400.57521729719451
 20
511.38470973639727
  0
POINT
  8
_0-9__
 62
    4
 10
440.57521729719474
 20
511.38470973639727
  0
LINE
  8
_0-9__
  6
CONTINUOUS
 62
    4
 10
400.57521729719451
 20
513.38470973639733
 11
400.57521729719451
 21
490.12950374913504
  0
LINE
  8
_0-9__
  6
CONTINUOUS
 62
    4
 10
400.57521729719451
 20
511.38470973639727
 11
440.57521729719474
 21
511.38470973639727
  0
TEXT
  8
_0-9__
 62
    3
 10
416.32521729719463
 20
512.38470973639733
 40
10
 41
0.8
 50
0
  1
40
  0
POINT
  8
_0-9__
 62
    4
 10
480.57521729719468
 20
511.38470973639727
  0
LINE
  8
_0-9__
  6
CONTINUOUS
 62
    4
 10
480.57521729719468
 20
513.38470973639733
 11
480.57521729719468
 21
490.12950374913498
  0
LINE
  8
_0-9__
  6
CONTINUOUS
 62
    4
 10
440.57521729719474
 20
511.38470973639727
 11
480.57521729719468
 21
511.38470973639727
  0
TEXT
  8
_0-9__
 62
    3
 10
456.32521729719474
 20
512.38470973639733
 40
10
 41
0.8
 50
0
  1
40
  0
POINT
  8
_0-9__
 62
    4
 10
122.0752172971948
 20
220.85150796239427
  0
POINT
  8
_0-9__
 62
    4
 10
159.07521729719485
 20
220.85150796239427
  0
LINE
  8
_0-9__
  6
CONTINUOUS
 62
    4
 10
122.0752172971948
 20
218.85150796239427
 11
122.0752172971948
 21
253.69011189379648
  0
LINE
  8
_0-9__
  6
CONTINUOUS
 62
    4
 10
159.07521729719485
 20
218.85150796239427
 11
159.07521729719485
 21
253.69011189379646
  0
LINE
  8
_0-9__
  6
CONTINUOUS
 62
    4
 10
122.0752172971948
 20
220.85150796239427
 11
159.07521729719485
 21
220.85150796239427
  0
TEXT
  8
_0-9__
 62
    3
 10
136.3252172971948
 20
221.85150796239427
 40
10
 41
0.8
 50
0
  1
37
  0
POINT
  8
_0-9__
 62
    4
 10
422.0752172971948
 20
220.85150796239427
  0
POINT
  8
_0-9__
 62
    4
 10
459.07521729719485
 20
220.85150796239427
  0
LINE
  8
_0-9__
  6
CONTINUOUS
 62
    4
 10
422.0752172971948
 20
218.85150796239427
 11
422.0752172971948
 21
253.69011189379697
  0
LINE
  8
_0-9__
  6
CONTINUOUS
 62
    4
 10
459.07521729719485
 20
218.85150796239427
 11
459.07521729719485
 21
253.69011189379694
  0
LINE
  8
_0-9__
  6
CONTINUOUS
 62
    4
 10
422.0752172971948
 20
220.85150796239427
 11
459.07521729719485
 21
220.85150796239427
  0
TEXT
  8
_0-9__
 62
    3
 10
436.3252172971948
 20
221.85150796239427
 40
10
 41
0.8
 50
0
  1
37
  0
LINE
  8
_0-9__
  6
CONTINUOUS
 62
    4
 10
140.57521729719474
 20
527.38470973639733
 11
290.57521729719474
 21
527.38470973639733
  0
TEXT
  8
_0-9__
 62
    3
 10
197.82521729719474
 20
528.38470973639733
 40
10
 41
0.8
 50
0
  1
150～200
  0
LINE
  8
_0-9__
  6
CONTINUOUS
 62
    4
 10
290.57521729719474
 20
527.38470973639733
 11
440.57521729719474
 21
527.38470973639733
  0
TEXT
  8
_0-9__
 62
    3
 10
347.82521729719474
 20
528.38470973639733
 40
10
 41
0.8
 50
0
  1
150～200
  0
LINE
  8
_0-a__
  6
CONTINUOUS
 62
    4
 10
228.55307924831905
 20
473.21328735351597
 11
259.81974184597505
 21
473.21328735351597
  0
LINE
  8
_0-a__
  6
CONTINUOUS
 62
    4
 10
212.93160402859206
 20
441.19010925293003
 11
214.58582460964706
 21
446.95756530761696
  0
LINE
  8
_0-a__
  6
CONTINUOUS
 62
    4
 10
212.93160402859206
 20
441.19010925293003
 11
216.45864260281104
 21
446.04397583007801
  0
LINE
  8
_0-a__
  6
CONTINUOUS
 62
    4
 10
212.93160402859206
 20
441.19010925293003
 11
228.55307924831905
 21
473.21328735351597
  0
TEXT
  8
_0-a__
 62
    3
 10
231.26418459499806
 20
475.07995605468801
 40
10
 41
0.8
 50
0
  1
内押え
  0
LINE
  8
_0-1_
  6
CENTER1
 62
    4
 10
602.26294785244875
 20
257.89011189378635
 11
628.45409217987026
 21
257.89011189378635
  0
LINE
  8
_0-1_
  6
CENTER1
 62
    4
 10
330.57521729719474
 20
265.79568503730525
 11
330.57521729719474
 21
249.02852933791104
  0
LINE
  8
_0-1_
  6
CENTER1
 62
    4
 10
320.92668990777986
 20
257.89011189378635
 11
338.94853072753699
 21
257.89011189378635
  0
INSERT
  2
-004-M4TRUSHEAD_1_
  8
_0-b__
 10
330.5752172971948
 20
257.89011189378635
 41
0.5
 42
0.5
 50
0
  0
LINE
  8
_0-a__
  6
CONTINUOUS
 62
    4
 10
606.09386599148309
 20
254.82219696044919
 11
604.60228884304502
 21
249.01055145263669
  0
LINE
  8
_0-a__
  6
CONTINUOUS
 62
    4
 10
606.09386599148309
 20
254.82219696044919
 11
602.70453798855306
 21
249.87118911743158
  0
LINE
  8
_0-a__
  6
CONTINUOUS
 62
    4
 10
606.09386599148309
 20
254.82219696044919
 11
592.06061709011601
 21
223.87809753417969
  0
ARC
  8
_0-7__
  6
CONTINUOUS
 62
    5
 10
290.57521729719474
 20
418.9860782082452
 40
8.267535003044765
 50
68.723743140126984
 51
111.27625685987302
  0
ARC
  8
_0-7__
  6
CONTINUOUS
 62
    5
 10
290.5752172971944
 20
281.64280039739054
 40
8.4997208445451324
 50
249.3319736736417
 51
290.66802632636444
  0
LINE
  8
_0-8__
  6
CONTINUOUS
 62
  136
 10
293.35201677717117
 20
263.69011189379671
 11
293.57521729719446
 21
263.91331241381999
  0
LINE
  8
_0-8__
  6
CONTINUOUS
 62
  136
 10
292.5034886397475
 20
263.69011189379631
 11
293.57521729719474
 21
264.76184055124349
  0
LINE
  8
_0-8__
  6
CONTINUOUS
 62
  136
 10
291.65496050232389
 20
263.69011189379592
 11
293.57521729719502
 21
265.61036868866705
  0
LINE
  8
_0-8__
  6
CONTINUOUS
 62
  136
 10
290.80643236490073
 20
263.69011189379603
 11
293.57521729719531
 21
266.45889682609061
  0
LINE
  8
_0-8__
  6
CONTINUOUS
 62
  136
 10
289.95790422747825
 20
263.69011189379682
 11
293.57521729719485
 21
267.30742496351343
  0
LINE
  8
_0-8__
  6
CONTINUOUS
 62
  136
 10
289.10937609005475
 20
263.69011189379665
 11
293.57521729719519
 21
268.1559531009371
  0
LINE
  8
_0-8__
  6
CONTINUOUS
 62
  136
 10
288.2608479526275
 20
263.69011189379626
 11
293.57521729719429
 21
269.00448123836304
  0
LINE
  8
_0-8__
  6
CONTINUOUS
 62
  136
 10
287.57521729719531
 20
263.85300937578734
 11
293.57521729719451
 21
269.85300937578654
  0
LINE
  8
_0-8__
  6
CONTINUOUS
 62
  136
 10
287.57521729719554
 20
264.70153751321084
 11
293.5752172971948
 21
270.7015375132101
  0
LINE
  8
_0-8__
  6
CONTINUOUS
 62
  136
 10
287.57521729719474
 20
265.55006565063331
 11
293.57521729719508
 21
271.55006565063366
  0
LINE
  8
_0-8__
  6
CONTINUOUS
 62
  136
 10
287.57521729719423
 20
266.39859378805608
 11
293.57521729719519
 21
272.39859378805704
  0
LINE
  8
_0-8__
  6
CONTINUOUS
 62
  136
 10
287.57521729719457
 20
267.24712192547969
 11
293.57521729719554
 21
273.24712192548066
  0
LINE
  8
_0-8__
  6
CONTINUOUS
 62
  136
 10
287.57521729719474
 20
268.09565006290677
 11
292.96573294839209
 21
273.48616571410412
  0
LINE
  8
_0-8__
  6
CONTINUOUS
 62
  136
 10
287.57521729719497
 20
268.94417820033033
 11
291.8739215338951
 21
273.2428824370304
  0
LINE
  8
_0-8__
  6
CONTINUOUS
 62
  136
 10
287.57521729719525
 20
269.79270633775383
 11
290.93312946307242
 21
273.15061850363099
  0
LINE
  8
_0-8__
  6
CONTINUOUS
 62
  136
 10
287.57521729719554
 20
270.64123447517738
 11
290.09087340215547
 21
273.15689058013731
  0
LINE
  8
_0-8__
  6
CONTINUOUS
 62
  136
 10
287.57521729719446
 20
271.48976261259963
 11
289.3215043287023
 21
273.23604964410742
  0
LINE
  8
_0-8__
  6
CONTINUOUS
 62
  136
 10
287.5752172971948
 20
272.33829075002325
 11
288.61025444482175
 21
273.37332789765014
  0
LINE
  8
_0-8__
  6
CONTINUOUS
 62
  136
 10
287.57521729719446
 20
273.18681888744976
 11
287.94777215408931
 21
273.55937374434461
  0
LINE
  8
_0-8__
  6
CONTINUOUS
 62
  136
 10
293.47346678990272
 20
426.72896429190564
 11
293.57521729719565
 21
426.83071479919863
  0
LINE
  8
_0-8__
  6
CONTINUOUS
 62
  136
 10
292.83481122815812
 20
426.93883686758431
 11
293.57521729719571
 21
427.67924293662196
  0
LINE
  8
_0-8__
  6
CONTINUOUS
 62
  136
 10
292.14974299919578
 20
427.10229677604525
 11
293.57521729719411
 21
428.52777107404364
  0
LINE
  8
_0-8__
  6
CONTINUOUS
 62
  136
 10
291.41025313914889
 20
427.21133505342533
 11
293.57521729719474
 21
429.37629921147118
  0
LINE
  8
_0-8__
  6
CONTINUOUS
 62
  136
 10
290.60395321993002
 20
427.25356327162973
 11
293.57521729719502
 21
430.22482734889473
  0
LINE
  8
_0-8__
  6
CONTINUOUS
 62
  136
 10
289.71008588679507
 20
427.20822407591805
 11
293.57521729719531
 21
431.07335548631829
  0
LINE
  8
_0-8__
  6
CONTINUOUS
 62
  136
 10
288.68887429187436
 20
427.03554061842061
 11
292.84344556724943
 21
431.19011189379569
  0
LINE
  8
_0-8__
  6
CONTINUOUS
 62
  136
 10
287.57521729719537
 20
426.77041176116489
 11
291.99491742982696
 21
431.19011189379648
  0
LINE
  8
_0-8__
  6
CONTINUOUS
 62
  136
 10
287.57521729719463
 20
427.61893989858743
 11
291.14638929240408
 21
431.19011189379688
  0
LINE
  8
_0-8__
  6
CONTINUOUS
 62
  136
 10
287.57521729719519
 20
428.46746803601491
 11
290.29786115497654
 21
431.19011189379626
  0
LINE
  8
_0-8__
  6
CONTINUOUS
 62
  136
 10
287.57521729719446
 20
429.3159961734375
 11
289.44933301755361
 21
431.1901118937966
  0
LINE
  8
_0-8__
  6
CONTINUOUS
 62
  136
 10
287.5752172971948
 20
430.164524310861
 11
288.60080488013011
 21
431.19011189379637
  0
LINE
  8
_0-8__
  6
CONTINUOUS
 62
  136
 10
287.57521729719508
 20
431.01305244828461
 11
287.75227674270661
 21
431.19011189379614
  0
LINE
  8
_0-a__
  6
CONTINUOUS
 62
    4
 10
341.282958984375
 20
163.75894165039099
 11
390.54962539672852
 21
163.75894165039099
  0
LINE
  8
_0-a__
  6
CONTINUOUS
 62
    4
 10
292.93930816650402
 20
267.4638671875
 11
296.38019561767601
 21
262.54855346679687
  0
LINE
  8
_0-a__
  6
CONTINUOUS
 62
    4
 10
292.93930816650402
 20
267.4638671875
 11
294.49154663085903
 21
261.66812896728521
  0
LINE
  8
_0-a__
  6
CONTINUOUS
 62
    4
 10
292.93930816650402
 20
267.4638671875
 11
341.282958984375
 21
163.75894165039099
  0
TEXT
  8
_0-a__
 62
    3
 10
343.99407196044922
 20
165.62561035156199
 40
10
 41
0.8
 50
0
  1
充填接着剤
  0
LINE
  8
_0-a__
  6
CONTINUOUS
 62
    4
 10
592.06061709011601
 20
223.87809753417969
 11
546.69054926037234
 21
223.87809753417969
  0
TEXT
  8
_0-a__
 62
    3
 10
549.40166223644724
 20
212.01142883300781
 40
10
 41
0.8
 50
0
  1
4x16(SUS)
  0
TEXT
  8
_0-a__
 62
    3
 10
549.40166223644724
 20
225.744758605957
 40
10
 41
0.8
 50
0
  1
ﾅﾍﾞﾃｸｽﾋﾞｽ
  0
INSERT
  2
-005-TX4X16O
  8
_0-b__
 10
614.8184755131465
 20
257.88637425282872
 41
0.5
 42
0.5
 50
90
  0
INSERT
  2
-007-OTK-NT12-H
  8
_0-2__
 10
440.12404102489546
 20
365.77334269516621
 41
1.5
 42
1.5
 50
0
  0
INSERT
  2
-007-OTK-NT12-H
  8
_0-2__
 10
140.12404102489546
 20
365.77334269516564
 41
1.5
 42
1.5
 50
0
  0
LINE
  8
_0-2__
  6
CONTINUOUS
 62
    7
 10
461.07521729719463
 20
426.69011189369661
 11
512.86614652281298
 21
426.69011189369661
  0
LINE
  8
_0-2__
  6
CONTINUOUS
 62
    7
 10
293.57521729719474
 20
426.69011189369661
 11
420.07521729719463
 21
426.69011189369661
  0
LINE
  8
_0-2__
  6
CONTINUOUS
 62
    7
 10
60.706016567608856
 20
426.69011189369661
 11
120.07521729719463
 21
426.69011189369661
  0
LINE
  8
_0-2__
  6
CONTINUOUS
 62
    7
 10
161.07521729719463
 20
426.69011189369661
 11
287.57521729719474
 21
426.69011189369661
  0
ENDSEC
  0
EOF
