  0
SECTION
  2
HEADER
  9
$ACADVER
  1
AC1009
  9
$INSBASE
 10
0
 20
0
 30
0
  9
$EXTMIN
 10
0
 20
0
  9
$EXTMAX
 10
840
 20
594
  9
$LIMMIN
 10
0
 20
0
  9
$LIMMAX
 10
840
 20
594
  9
$LTSCALE
 40
2
  0
ENDSEC
  0
SECTION
  2
TABLES
  0
TABLE
  2
LTYPE
 70
     9
  0
LTYPE
  2
CONTINUOUS
 70
    64
  3
実線
 72
    65
 73
     0
 40
0.0
  0
LTYPE
  2
DASHED1
 70
    64
  3
--  --  --  --  --  --  --  --  
 72
    65
 73
     2
 40
2.5
 49
1.25
 49
-1.25
  0
LTYPE
  2
DASHED2
 70
    64
  3
----    ----    ----    ----    
 72
    65
 73
     2
 40
5.0
 49
2.5
 49
-2.5
  0
LTYPE
  2
DASHED3
 70
    64
  3
------  ------  ------  ------  
 72
    65
 73
     2
 40
5.0
 49
3.75
 49
-1.25
  0
LTYPE
  2
CENTER1
 70
    64
  3
----- - ----- - ----- - ----- - 
 72
    65
 73
     4
 40
10.0
 49
6.25
 49
-1.25
 49
1.25
 49
-1.25
  0
LTYPE
  2
CENTER2
 70
    64
  3
----------  --  ----------  --  
 72
    65
 73
     4
 40
20.0
 49
12.5
 49
-2.5
 49
2.5
 49
-2.5
  0
LTYPE
  2
PHANTOM1
 70
    64
  3
--- - - --- - - --- - - --- - - 
 72
    65
 73
     6
 40
10.0
 49
3.25
 49
-1.25
 49
1.25
 49
-1.25
 49
1.25
 49
-1.25
  0
LTYPE
  2
PHANTOM2
 70
    64
  3
--------  -  -  --------  -  -  
 72
    65
 73
     6
 40
20.0
 49
10.0
 49
-2.5
 49
1.25
 49
-2.5
 49
1.25
 49
-2.5
  0
LTYPE
  2
DOT
 70
    64
  3
-   -   -   -   -   -   -   -   
 72
    65
 73
     2
 40
2.5
 49
0.625
 49
-1.875
  0
LTYPE
  2
DUMMY
 70
    64
  3
ダミー
 72
    65
 73
     0
 40
0.0
  0
LTYPE
  2
RAND1
 70
    64
  3
ランダム線1
 72
    65
 73
     4
 40
10.0
 49
1.0
 49
-2.0
 49
3.0
 49
-4.0
  0
LTYPE
  2
RAND2
 70
    64
  3
ランダム線2
 72
    65
 73
     4
 40
14.0
 49
2.0
 49
-3.0
 49
4.0
 49
-5.0
  0
LTYPE
  2
RAND3
 70
    64
  3
ランダム線3
 72
    65
 73
     4
 40
18.0
 49
3.0
 49
-4.0
 49
5.0
 49
-6.0
  0
LTYPE
  2
RAND4
 70
    64
  3
ランダム線4
 72
    65
 73
     4
 40
22.0
 49
4.0
 49
-5.0
 49
6.0
 49
-7.0
  0
LTYPE
  2
RAND5
 70
    64
  3
ランダム線5
 72
    65
 73
     4
 40
26.0
 49
5.0
 49
-6.0
 49
7.0
 49
-8.0
  0
LTYPE
  2
LONG1
 70
    64
  3
----------  --  ----------  --  
 72
    65
 73
     4
 40
40.0
 49
32.5
 49
-2.5
 49
2.5
 49
-2.5
  0
LTYPE
  2
LONG2
 70
    64
  3
--------  -  -  --------  -  -  
 72
    65
 73
     6
 40
40.0
 49
30.0
 49
-2.5
 49
1.25
 49
-2.5
 49
1.25
 49
-2.5
  0
LTYPE
  2
LONG3
 70
    64
  3
+++++++++++++++..+++++++++++++++
 72
    65
 73
     2
 40
40.0
 49
37.5
 49
-2.5
  0
LTYPE
  2
LONG4
 70
    64
  3
+++++++++++++++..+++++++++++++++
 72
    65
 73
     2
 40
80.0
 49
75.0
 49
-5.0
  0
LTYPE
  2
LONG5
 70
    64
  3
----------  --  ----------  --  
 72
    65
 73
     4
 40
60.0
 49
37.5
 49
-7.5
 49
7.5
 49
-7.5
  0
LTYPE
  2
dashed
 70
   64
  3
-------   -------------   ------
 72
   65
 73
    2
 40
7.5
 49
6
 49
-1.5
  0
LTYPE
  2
dashed_spaced
 70
   64
  3
----        --------        ----
 72
   65
 73
    2
 40
12
 49
6
 49
-6
  0
LTYPE
  2
long_dashed_dotted
 70
   64
  3
------------- --- --------------
 72
   65
 73
    4
 40
15.25
 49
12
 49
-1.5
 49
0.25
 49
-1.5
  0
LTYPE
  2
long_dashed_double-dotted
 70
   64
  3
----------- --- --- ------------
 72
   65
 73
    6
 40
17
 49
12
 49
-1.5
 49
0.25
 49
-1.5
 49
0.25
 49
-1.5
  0
LTYPE
  2
long_dashed_triplicate-dotted
 70
   64
  3
--------- --- --- --- ----------
 72
   65
 73
    8
 40
18.75
 49
12
 49
-1.5
 49
0.25
 49
-1.5
 49
0.25
 49
-1.5
 49
0.25
 49
-1.5
  0
LTYPE
  2
dotted
 70
   64
  3
   -       -       -       -    
 72
   65
 73
    2
 40
1.75
 49
0.25
 49
-1.5
  0
LTYPE
  2
chain
 70
   64
  3
-------------- -- --------------
 72
   65
 73
    4
 40
18.5
 49
12
 49
-1.5
 49
3.5
 49
-1.5
  0
LTYPE
  2
chain_double_dash
 70
   64
  3
------------ -- -- -------------
 72
   65
 73
    6
 40
23.5
 49
12
 49
-1.5
 49
3.5
 49
-1.5
 49
3.5
 49
-1.5
  0
LTYPE
  2
dashed_dotted
 70
   64
  3
-----------     -     ----------
 72
   65
 73
    4
 40
9.25
 49
6
 49
-1.5
 49
0.25
 49
-1.5
  0
LTYPE
  2
double-dashed_dotted
 70
   64
  3
------   -----------   -   -----
 72
   65
 73
    6
 40
16.75
 49
6
 49
-1.5
 49
6
 49
-1.5
 49
0.25
 49
-1.5
  0
LTYPE
  2
dashed_double-dotted
 70
   64
  3
---------    -    -    ---------
 72
   65
 73
    6
 40
11
 49
6
 49
-1.5
 49
0.25
 49
-1.5
 49
0.25
 49
-1.5
  0
LTYPE
  2
double-dashed_double-dotted
 70
   64
  3
-----   ---------   -   -   ----
 72
   65
 73
    8
 40
18.5
 49
6
 49
-1.5
 49
6
 49
-1.5
 49
0.25
 49
-1.5
 49
0.25
 49
-1.5
  0
LTYPE
  2
dashed_triplicate-dotted
 70
   64
  3
-------    -    -    -    ------
 72
   65
 73
    8
 40
12.75
 49
6
 49
-1.5
 49
0.25
 49
-1.5
 49
0.25
 49
-1.5
 49
0.25
 49
-1.5
  0
LTYPE
  2
double-dashed_triplicate-dotted
 70
   64
  3
-----  ---------  -  -  -  -----
 72
   65
 73
   10
 40
20.25
 49
6
 49
-1.5
 49
6
 49
-1.5
 49
0.25
 49
-1.5
 49
0.25
 49
-1.5
 49
0.25
 49
-1.5
  0
LTYPE
  2
undefined
 70
   64
  3
--------------------------------
 72
   65
 73
    0
 40
0
  0
ENDTAB
  0
TABLE
  2
STYLE
  5
3
100
AcDbSymbolTable
 70
     1
  0
STYLE
  5
10
100
AcDbSymbolTableRecord
100
AcDbTextStyleTableRecord
  2
STANDARD
 70
     0
 40
0.0
 41
1.0
 50
0.0
 71
     0
 42
0.2
  3
txt
  4
bigfont.shx
  0
STYLE
  5
26
100
AcDbSymbolTableRecord
100
AcDbTextStyleTableRecord
  2
TATEGAKI
 70
    68
 40
0.0
 41
1.0
 50
0.0
 71
     0
 42
1.0
  3
txt
  4
bigfont.shx
  0
ENDTAB
  0
TABLE
  2
LAYER
 70
    6
  0
LAYER
  2
_0-1_一般図
 70
   64
 62
    7
  6
CONTINUOUS
  0
LAYER
  2
_0-9_
 70
   64
 62
    7
  6
CONTINUOUS
  0
LAYER
  2
_0-a_
 70
   64
 62
    7
  6
CONTINUOUS
  0
LAYER
  2
_f-1_一般図
 70
   64
 62
    7
  6
CONTINUOUS
  0
LAYER
  2
_f-a_
 70
   64
 62
    7
  6
CONTINUOUS
  0
LAYER
  2
ADD_LINE
 70
   64
 62
    7
  6
CONTINUOUS
  0
ENDTAB
  0
ENDSEC
  0
SECTION
  2
BLOCKS
  0
BLOCK
  2
-000-ATN-114
 70
   64
 10
0
 20
0
 30
0
  0
CIRCLE
  8
_0-1_一般図
  6
CONTINUOUS
 62
    7
 10
0.0000000000002273
 20
96.932629980233997
 40
111
  0
ARC
  8
_0-1_一般図
  6
CONTINUOUS
 62
    7
 10
0.0000000000002273
 20
96.932629980233997
 40
114
 50
255.24745608134563
 51
284.74994824629584
  0
ARC
  8
_0-1_一般図
  6
CONTINUOUS
 62
    7
 10
29.177283160549621
 20
-13.890860974387685
 40
0.6
 50
348.72513841372449
 51
104.74994824629569
  0
ARC
  8
_0-1_一般図
  6
CONTINUOUS
 62
    7
 10
33.718345849302693
 20
-12.594686946580303
 40
0.6
 50
107.11115494954909
 51
168.72513841372447
  0
ARC
  8
_0-1_一般図
  6
CONTINUOUS
 62
    7
 10
32.131425653234601
 20
-20.554620763307064
 40
0.6
 50
168.72513841372435
 51
270
  0
ARC
  8
_0-1_一般図
  6
CONTINUOUS
 62
    7
 10
33.400000000000034
 20
-21.754620763307067
 40
0.6
 50
353.75960486439891
 51
90
  0
LINE
  8
_0-1_一般図
  6
CONTINUOUS
 62
    7
 10
29.765703481643186
 20
-14.008170503941564
 11
28.3808098135367
 21
-20.95474662581892
  0
ARC
  8
_0-1_一般図
  6
CONTINUOUS
 62
    7
 10
31.169611513388702
 20
-21.510731869191709
 40
2.8436832650535449
 50
168.72513841372435
 51
353.75960486439885
  0
ARC
  8
_0-1_一般図
  6
CONTINUOUS
 62
    7
 10
-29.177283160549507
 20
-13.890860974387685
 40
0.6
 50
75.250051753704312
 51
191.27486158627553
  0
ARC
  8
_0-1_一般図
  6
CONTINUOUS
 62
    7
 10
-33.718345849302523
 20
-12.594686946580303
 40
0.6
 50
11.274861586275533
 51
72.888845050450911
  0
ARC
  8
_0-1_一般図
  6
CONTINUOUS
 62
    7
 10
-32.131425653234487
 20
-20.554620763307064
 40
0.6
 50
270
 51
11.27486158627562
  0
ARC
  8
_0-1_一般図
  6
CONTINUOUS
 62
    7
 10
-33.39999999999992
 20
-21.754620763307067
 40
0.6
 50
90
 51
186.24039513560106
  0
LINE
  8
_0-1_一般図
  6
CONTINUOUS
 62
    7
 10
-29.765703481643072
 20
-14.008170503941564
 11
-28.380809813536587
 21
-20.95474662581892
  0
ARC
  8
_0-1_一般図
  6
CONTINUOUS
 62
    7
 10
-31.169611513388588
 20
-21.510731869191709
 40
2.8436832650535449
 50
186.24039513560112
 51
11.274861586275563
  0
LINE
  8
_0-1_一般図
  6
CONTINUOUS
 62
    7
 10
32.131425653234601
 20
-21.154620763307058
 11
33.400000000000034
 21
-21.154620763307058
  0
LINE
  8
_0-1_一般図
  6
CONTINUOUS
 62
    7
 10
31.543005332141036
 20
-20.437311233753185
 11
33.129925528209128
 21
-12.477377417026425
  0
ARC
  8
_0-1_一般図
  6
CONTINUOUS
 62
    7
 10
0.0000000000002273
 20
96.932629980233997
 40
114
 50
287.11115494954907
 51
252.88884505045081
  0
LINE
  8
_0-1_一般図
  6
CONTINUOUS
 62
    7
 10
-32.131425653234487
 20
-21.154620763307058
 11
-33.39999999999992
 21
-21.154620763307058
  0
LINE
  8
_0-1_一般図
  6
CONTINUOUS
 62
    7
 10
-31.543005332140922
 20
-20.437311233753185
 11
-33.129925528208958
 21
-12.477377417026425
  0
ENDBLK
  0
BLOCK
  2
-001-M-B-1
 70
   64
 10
0
 20
0
 30
0
  0
LINE
  8
_0-1_一般図
  6
CONTINUOUS
 62
    7
 10
-191.60609038681599
 20
-47.186692751679004
 11
-233.36715377532863
 21
-47.186692751679004
  0
ARC
  8
_0-1_一般図
  6
CONTINUOUS
 62
    7
 10
-233.36715377532863
 20
-46.986692751679016
 40
0.2
 50
180
 51
270
  0
LINE
  8
_0-1_一般図
  6
CONTINUOUS
 62
    7
 10
-233.56715377532862
 20
-46.986692751679016
 11
-233.56715377532862
 21
77.813307248320982
  0
ARC
  8
_0-1_一般図
  6
CONTINUOUS
 62
    7
 10
-233.36715377532863
 20
77.813307248320982
 40
0.2
 50
90
 51
180
  0
LINE
  8
_0-1_一般図
  6
CONTINUOUS
 62
    7
 10
-227.8671537753286
 20
78.013307248320984
 11
-233.36715377532863
 21
78.013307248320984
  0
ARC
  8
_0-1_一般図
  6
CONTINUOUS
 62
    7
 10
-227.8671537753286
 20
77.813307248320982
 40
0.2
 50
0
 51
90
  0
LINE
  8
_0-1_一般図
  6
CONTINUOUS
 62
    7
 10
-227.66715377532861
 20
-36.986692751679016
 11
-227.66715377532861
 21
77.813307248320982
  0
ARC
  8
_0-1_一般図
  6
CONTINUOUS
 62
    7
 10
-227.46715377532863
 20
-36.986692751679016
 40
0.2
 50
180
 51
270
  0
LINE
  8
_0-1_一般図
  6
CONTINUOUS
 62
    7
 10
-227.46715377532863
 20
-37.186692751679004
 11
-216.23562257295345
 21
-37.186692751679004
  0
ARC
  8
_0-1_一般図
  6
CONTINUOUS
 62
    7
 10
-216.23562257295345
 20
-37.85516154930383
 40
0.668468797624813
 50
308.69380892409748
 51
90
  0
ARC
  8
_0-1_一般図
  6
CONTINUOUS
 62
    7
 10
-213.56715377532862
 20
-41.186692751679004
 40
3.6000000000000001
 50
128.69380892409711
 51
51.306191075902746
  0
ARC
  8
_0-1_一般図
  6
CONTINUOUS
 62
    7
 10
-210.89868497770379
 20
-37.85516154930383
 40
0.6684687976248178
 50
90
 51
231.30619107590303
  0
LINE
  8
_0-1_一般図
  6
CONTINUOUS
 62
    7
 10
-170.23562257295345
 20
-37.186692751679004
 11
-210.89868497770379
 21
-37.186692751679004
  0
ARC
  8
_0-1_一般図
  6
CONTINUOUS
 62
    7
 10
-170.23562257295345
 20
-37.85516154930383
 40
0.6684687976248178
 50
308.69380892409691
 51
90
  0
ARC
  8
_0-1_一般図
  6
CONTINUOUS
 62
    7
 10
-167.56715377532862
 20
-41.186692751679004
 40
3.6000000000000001
 50
128.69380892409725
 51
51.306191075902859
  0
ARC
  8
_0-1_一般図
  6
CONTINUOUS
 62
    7
 10
-164.89868497770379
 20
-37.85516154930383
 40
0.668468797624813
 50
90
 51
231.30619107590252
  0
LINE
  8
_0-1_一般図
  6
CONTINUOUS
 62
    7
 10
-153.66715377532861
 20
-37.186692751679004
 11
-164.89868497770379
 21
-37.186692751679004
  0
ARC
  8
_0-1_一般図
  6
CONTINUOUS
 62
    7
 10
-153.66715377532861
 20
-36.986692751679016
 40
0.2
 50
270
 51
0
  0
LINE
  8
_0-1_一般図
  6
CONTINUOUS
 62
    7
 10
-153.46715377532863
 20
77.813307248320982
 11
-153.46715377532863
 21
-36.986692751679016
  0
ARC
  8
_0-1_一般図
  6
CONTINUOUS
 62
    7
 10
-153.26715377532861
 20
77.813307248320982
 40
0.2
 50
90
 51
180
  0
LINE
  8
_0-1_一般図
  6
CONTINUOUS
 62
    7
 10
-147.76715377532861
 20
78.013307248320984
 11
-153.26715377532861
 21
78.013307248320984
  0
ARC
  8
_0-1_一般図
  6
CONTINUOUS
 62
    7
 10
-147.76715377532861
 20
77.813307248320982
 40
0.2
 50
0
 51
90
  0
LINE
  8
_0-1_一般図
  6
CONTINUOUS
 62
    7
 10
-147.56715377532862
 20
77.813307248320982
 11
-147.56715377532862
 21
-46.986692751679016
  0
ARC
  8
_0-1_一般図
  6
CONTINUOUS
 62
    7
 10
-147.76715377532861
 20
-46.986692751679016
 40
0.2
 50
270
 51
0
  0
LINE
  8
_0-1_一般図
  6
CONTINUOUS
 62
    7
 10
-147.76715377532861
 20
-47.186692751679004
 11
-189.52762941773329
 21
-47.186692751679004
  0
ARC
  8
_0-1_一般図
  6
CONTINUOUS
 62
    7
 10
-189.52762941773329
 20
-46.586692751679109
 40
0.6
 50
209.99999999999568
 51
270
  0
ARC
  8
_0-1_一般図
  6
CONTINUOUS
 62
    7
 10
-190.56685990227464
 20
-47.186692751679018
 40
0.6
 50
29.999999999995691
 51
149.99999999999963
  0
ARC
  8
_0-1_一般図
  6
CONTINUOUS
 62
    7
 10
-191.60609038681599
 20
-46.586692751679109
 40
0.6
 50
270
 51
330.00000000000432
  0
LINE
  8
_0-1_一般図
  6
DASHED1
 62
    3
 10
-233.56715377532862
 20
39.813307248320996
 11
-227.66715377532861
 21
39.813307248320996
  0
LINE
  8
_0-1_一般図
  6
DASHED1
 62
    3
 10
-233.56715377532862
 20
15.813307248320996
 11
-227.66715377532861
 21
15.813307248320996
  0
LINE
  8
_0-1_一般図
  6
DASHED1
 62
    3
 10
-147.56715377532862
 20
39.813307248320996
 11
-153.46715377532863
 21
39.813307248320996
  0
LINE
  8
_0-1_一般図
  6
DASHED1
 62
    3
 10
-147.56715377532862
 20
15.813307248320996
 11
-153.46715377532863
 21
15.813307248320996
  0
LINE
  8
_0-1_一般図
  6
DASHED1
 62
    3
 10
-175.56715377532862
 20
-37.186692751679004
 11
-175.56715377532862
 21
-47.186692751679004
  0
LINE
  8
_0-1_一般図
  6
DASHED1
 62
    3
 10
-205.56715377532862
 20
-37.186692751679004
 11
-205.56715377532862
 21
-47.186692751679004
  0
ENDBLK
  0
BLOCK
  2
-002-M-A-1
 70
   64
 10
0
 20
0
 30
0
  0
LINE
  8
_0-9_
  6
CONTINUOUS
 62
    7
 10
32.620156254072327
 20
61.285692879514677
 11
33.800487815954995
 21
61.285692879514677
  0
ARC
  8
_0-9_
  6
CONTINUOUS
 62
    7
 10
33.800487815954995
 20
60.685692879514541
 40
0.6
 50
0
 51
90
  0
ARC
  8
_0-9_
  6
CONTINUOUS
 62
    7
 10
36.400011039561974
 20
70.285719827143751
 40
0.6
 50
0
 51
152.11909256481778
  0
ARC
  8
_0-9_
  6
CONTINUOUS
 62
    7
 10
32.620156254072441
 20
62.285692879514677
 40
1
 50
152.119092564818
 51
269.99999999999994
  0
LINE
  8
_0-9_
  6
CONTINUOUS
 62
    7
 10
35.869658134527668
 20
70.566301002780577
 11
31.736234745681969
 21
62.753328172242739
  0
ARC
  8
_0-9_
  6
CONTINUOUS
 62
    7
 10
-1.0395133180331584
 20
-38.715449052544379
 40
0.6
 50
29.999999999995691
 51
90
  0
ARC
  8
_0-9_
  6
CONTINUOUS
 62
    7
 10
-0.0002828334918092
 20
-38.11544905254447
 40
0.6
 50
209.99999999999568
 51
329.9999999999996
  0
ARC
  8
_0-9_
  6
CONTINUOUS
 62
    7
 10
1.0389476510495399
 20
-38.715449052544379
 40
0.6
 50
90
 51
150.00000000000432
  0
ARC
  8
_0-9_
  6
CONTINUOUS
 62
    7
 10
-4.0002532585417327
 20
-43.715451762599848
 40
0.6
 50
89.998329108938208
 51
120.94611808112874
  0
LINE
  8
_0-9_
  6
CONTINUOUS
 62
    7
 10
-5.6916994194618553
 20
-44.030026383614192
 11
-4.3087923101465719
 21
-43.200860999337571
  0
ARC
  8
_0-9_
  6
CONTINUOUS
 62
    7
 10
-6.0002384710666945
 20
-43.515435620351916
 40
0.6
 50
270.00167089106179
 51
300.94611808112876
  0
ARC
  8
_0-9_
  6
CONTINUOUS
 62
    7
 10
-4.0002182634811732
 20
-43.715451762599848
 40
0.6
 50
59.053881918871248
 51
90.001670891061792
  0
LINE
  8
_0-9_
  6
CONTINUOUS
 62
    7
 10
-2.3087721025610506
 20
-44.030026383614192
 11
-3.691679211876334
 21
-43.200860999337571
  0
ARC
  8
_0-9_
  6
CONTINUOUS
 62
    7
 10
-2.0002330509562114
 20
-43.515435620351916
 40
0.6
 50
239.05388191887124
 51
269.99832910893821
  0
ARC
  8
_0-9_
  6
CONTINUOUS
 62
    7
 10
-8.0002236835916563
 20
-43.715451762599848
 40
0.6
 50
89.998329108938208
 51
120.94611808112874
  0
LINE
  8
_0-9_
  6
CONTINUOUS
 62
    7
 10
-9.6916698445117788
 20
-44.030026383614192
 11
-8.3087627351964954
 21
-43.200860999337571
  0
ARC
  8
_0-9_
  6
CONTINUOUS
 62
    7
 10
-10.000208896116618
 20
-43.515435620351916
 40
0.6
 50
270.00167089106179
 51
300.94611808112876
  0
ARC
  8
_0-9_
  6
CONTINUOUS
 62
    7
 10
-8.0001886885310967
 20
-43.715451762599848
 40
0.6
 50
59.053881918871248
 51
90.001670891061792
  0
LINE
  8
_0-9_
  6
CONTINUOUS
 62
    7
 10
-6.3087425276109741
 20
-44.030026383614192
 11
-7.6916496369262575
 21
-43.200860999337571
  0
ARC
  8
_0-9_
  6
CONTINUOUS
 62
    7
 10
-6.0002034760061349
 20
-43.515435620351916
 40
0.6
 50
239.05388191887124
 51
269.99832910893821
  0
ARC
  8
_0-9_
  6
CONTINUOUS
 62
    7
 10
-12.00019410864158
 20
-43.715451762599848
 40
0.6
 50
89.998329108938208
 51
120.94611808112874
  0
LINE
  8
_0-9_
  6
CONTINUOUS
 62
    7
 10
-13.691640269561702
 20
-44.030026383614192
 11
-12.308733160246419
 21
-43.200860999337571
  0
ARC
  8
_0-9_
  6
CONTINUOUS
 62
    7
 10
-12.00015911358102
 20
-43.715451762599848
 40
0.6
 50
59.053881918871248
 51
90.001670891061792
  0
LINE
  8
_0-9_
  6
CONTINUOUS
 62
    7
 10
-10.308712952660898
 20
-44.030026383614192
 11
-11.691620061976181
 21
-43.200860999337571
  0
ARC
  8
_0-9_
  6
CONTINUOUS
 62
    7
 10
-10.000173901056058
 20
-43.515435620351916
 40
0.6
 50
239.05388191887124
 51
269.99832910893821
  0
ARC
  8
_0-9_
  6
CONTINUOUS
 62
    7
 10
-0.0002478384312496
 20
-43.715451762599848
 40
0.6
 50
59.053881918871248
 51
90.001670891061792
  0
LINE
  8
_0-9_
  6
CONTINUOUS
 62
    7
 10
1.6911983224888729
 20
-44.030026383614192
 11
0.3082912131735895
 21
-43.200860999337571
  0
ARC
  8
_0-9_
  6
CONTINUOUS
 62
    7
 10
-0.0002828334918092
 20
-43.715451762599848
 40
0.6
 50
89.998329108938208
 51
120.94611808112874
  0
LINE
  8
_0-9_
  6
CONTINUOUS
 62
    7
 10
-1.6917289944119318
 20
-44.030026383614192
 11
-0.3088218850966484
 21
-43.200860999337571
  0
ARC
  8
_0-9_
  6
CONTINUOUS
 62
    7
 10
-2.000268046016771
 20
-43.515435620351916
 40
0.6
 50
270.00167089106179
 51
300.94611808112876
  0
ARC
  8
_0-9_
  6
CONTINUOUS
 62
    7
 10
-14.000208896116618
 20
-43.515435620351916
 40
0.6
 50
270.00167089106179
 51
300.94611808112876
  0
ARC
  8
_0-9_
  6
CONTINUOUS
 62
    7
 10
-16.00019410864158
 20
-43.715451762599848
 40
0.6
 50
89.998329108938208
 51
120.94611808112874
  0
LINE
  8
_0-9_
  6
CONTINUOUS
 62
    7
 10
-17.691640269561702
 20
-44.030026383614192
 11
-16.308733160246419
 21
-43.200860999337571
  0
ARC
  8
_0-9_
  6
CONTINUOUS
 62
    7
 10
-16.00015911358102
 20
-43.715451762599848
 40
0.6
 50
59.053881918871248
 51
90.001670891061792
  0
LINE
  8
_0-9_
  6
CONTINUOUS
 62
    7
 10
-14.308712952660898
 20
-44.030026383614192
 11
-15.691620061976181
 21
-43.200860999337571
  0
ARC
  8
_0-9_
  6
CONTINUOUS
 62
    7
 10
-14.000173901056058
 20
-43.515435620351916
 40
0.6
 50
239.05388191887124
 51
269.99832910893821
  0
ARC
  8
_0-9_
  6
CONTINUOUS
 62
    7
 10
-18.000208896116618
 20
-43.515435620351916
 40
0.6
 50
270.00167089106179
 51
300.94611808112876
  0
ARC
  8
_0-9_
  6
CONTINUOUS
 62
    7
 10
-20.00019410864158
 20
-43.715451762599848
 40
0.6
 50
89.998329108938208
 51
120.94611808112874
  0
ARC
  8
_0-9_
  6
CONTINUOUS
 62
    7
 10
-20.00015911358102
 20
-43.715451762599848
 40
0.6
 50
59.053881918871248
 51
90.001670891061792
  0
LINE
  8
_0-9_
  6
CONTINUOUS
 62
    7
 10
-18.308712952660898
 20
-44.030026383614192
 11
-19.691620061976181
 21
-43.200860999337571
  0
ARC
  8
_0-9_
  6
CONTINUOUS
 62
    7
 10
-18.000173901056058
 20
-43.515435620351916
 40
0.6
 50
239.05388191887124
 51
269.99832910893821
  0
LINE
  8
_0-9_
  6
CONTINUOUS
 62
    7
 10
-21.691640269561702
 20
-44.030026383614192
 11
-20.308733160246419
 21
-43.200860999337571
  0
ARC
  8
_0-9_
  6
CONTINUOUS
 62
    7
 10
4.0002753376669773
 20
-43.715451762599848
 40
0.6
 50
59.053881918871248
 51
90.001670891061792
  0
LINE
  8
_0-9_
  6
CONTINUOUS
 62
    7
 10
5.6917214985870999
 20
-44.030026383614192
 11
4.3088143892718165
 21
-43.200860999337571
  0
ARC
  8
_0-9_
  6
CONTINUOUS
 62
    7
 10
6.000260550191939
 20
-43.515435620351916
 40
0.6
 50
239.05388191887124
 51
269.99832910893821
  0
ARC
  8
_0-9_
  6
CONTINUOUS
 62
    7
 10
4.0002403426064177
 20
-43.715451762599848
 40
0.6
 50
89.998329108938208
 51
120.94611808112874
  0
LINE
  8
_0-9_
  6
CONTINUOUS
 62
    7
 10
2.3087941816862951
 20
-44.030026383614192
 11
3.6917012910015785
 21
-43.200860999337571
  0
ARC
  8
_0-9_
  6
CONTINUOUS
 62
    7
 10
2.0002551300814559
 20
-43.515435620351916
 40
0.6
 50
270.00167089106179
 51
300.94611808112876
  0
ARC
  8
_0-9_
  6
CONTINUOUS
 62
    7
 10
8.0002457627169008
 20
-43.715451762599848
 40
0.6
 50
59.053881918871248
 51
90.001670891061792
  0
LINE
  8
_0-9_
  6
CONTINUOUS
 62
    7
 10
9.6916919236370234
 20
-44.030026383614192
 11
8.30878481432174
 21
-43.200860999337571
  0
ARC
  8
_0-9_
  6
CONTINUOUS
 62
    7
 10
10.000230975241863
 20
-43.515435620351916
 40
0.6
 50
239.05388191887124
 51
269.99832910893821
  0
ARC
  8
_0-9_
  6
CONTINUOUS
 62
    7
 10
8.0002107676563412
 20
-43.715451762599848
 40
0.6
 50
89.998329108938208
 51
120.94611808112874
  0
LINE
  8
_0-9_
  6
CONTINUOUS
 62
    7
 10
6.3087646067362186
 20
-44.030026383614192
 11
7.691671716051502
 21
-43.200860999337571
  0
ARC
  8
_0-9_
  6
CONTINUOUS
 62
    7
 10
6.0002255551313795
 20
-43.515435620351916
 40
0.6
 50
270.00167089106179
 51
300.94611808112876
  0
ARC
  8
_0-9_
  6
CONTINUOUS
 62
    7
 10
12.000216187766824
 20
-43.715451762599848
 40
0.6
 50
59.053881918871248
 51
90.001670891061792
  0
LINE
  8
_0-9_
  6
CONTINUOUS
 62
    7
 10
13.691662348686947
 20
-44.030026383614192
 11
12.308755239371663
 21
-43.200860999337571
  0
ARC
  8
_0-9_
  6
CONTINUOUS
 62
    7
 10
12.000181192706265
 20
-43.715451762599848
 40
0.6
 50
89.998329108938208
 51
120.94611808112874
  0
LINE
  8
_0-9_
  6
CONTINUOUS
 62
    7
 10
10.308735031786142
 20
-44.030026383614192
 11
11.691642141101426
 21
-43.200860999337571
  0
ARC
  8
_0-9_
  6
CONTINUOUS
 62
    7
 10
10.000195980181303
 20
-43.515435620351916
 40
0.6
 50
270.00167089106179
 51
300.94611808112876
  0
ARC
  8
_0-9_
  6
CONTINUOUS
 62
    7
 10
2.0002901251420155
 20
-43.515435620351916
 40
0.6
 50
239.0538819188713
 51
269.99832910893826
  0
ARC
  8
_0-9_
  6
CONTINUOUS
 62
    7
 10
14.000230975241863
 20
-43.515435620351916
 40
0.6
 50
239.05388191887124
 51
269.99832910893821
  0
ARC
  8
_0-9_
  6
CONTINUOUS
 62
    7
 10
16.000216187766824
 20
-43.715451762599848
 40
0.6
 50
59.053881918871248
 51
90.001670891061792
  0
LINE
  8
_0-9_
  6
CONTINUOUS
 62
    7
 10
17.691662348686947
 20
-44.030026383614192
 11
16.308755239371663
 21
-43.200860999337571
  0
ARC
  8
_0-9_
  6
CONTINUOUS
 62
    7
 10
16.000181192706265
 20
-43.715451762599848
 40
0.6
 50
89.998329108938208
 51
120.94611808112874
  0
LINE
  8
_0-9_
  6
CONTINUOUS
 62
    7
 10
14.308735031786142
 20
-44.030026383614192
 11
15.691642141101426
 21
-43.200860999337571
  0
ARC
  8
_0-9_
  6
CONTINUOUS
 62
    7
 10
14.000195980181303
 20
-43.515435620351916
 40
0.6
 50
270.00167089106179
 51
300.94611808112876
  0
ARC
  8
_0-9_
  6
CONTINUOUS
 62
    7
 10
18.000230975241863
 20
-43.515435620351916
 40
0.6
 50
239.05388191887124
 51
269.99832910893821
  0
ARC
  8
_0-9_
  6
CONTINUOUS
 62
    7
 10
20.000216187766824
 20
-43.715451762599848
 40
0.6
 50
59.053881918871248
 51
90.001670891061792
  0
ARC
  8
_0-9_
  6
CONTINUOUS
 62
    7
 10
20.000181192706265
 20
-43.715451762599848
 40
0.6
 50
89.998329108938208
 51
120.94611808112874
  0
LINE
  8
_0-9_
  6
CONTINUOUS
 62
    7
 10
18.308735031786142
 20
-44.030026383614192
 11
19.691642141101426
 21
-43.200860999337571
  0
ARC
  8
_0-9_
  6
CONTINUOUS
 62
    7
 10
18.000195980181303
 20
-43.515435620351916
 40
0.6
 50
270.00167089106179
 51
300.94611808112876
  0
LINE
  8
_0-9_
  6
CONTINUOUS
 62
    7
 10
21.691662348686947
 20
-44.030026383614192
 11
20.308755239371663
 21
-43.200860999337571
  0
ARC
  8
_0-9_
  6
CONTINUOUS
 62
    7
 10
-22.000179321166428
 20
-43.515435620351916
 40
0.6
 50
270
 51
300.94611808111915
  0
ARC
  8
_0-9_
  6
CONTINUOUS
 62
    7
 10
22.000201400291672
 20
-43.515435620351916
 40
0.6
 50
239.05388191888088
 51
270
  0
ARC
  8
_0-9_
  6
CONTINUOUS
 62
    7
 10
29.000011039561656
 20
49.884564379648118
 40
3.5999999999999996
 50
220.36124942452395
 51
270
  0
ARC
  8
_0-9_
  6
CONTINUOUS
 62
    7
 10
25.540366783292512
 20
46.944208635917512
 40
0.9403557437305937
 50
40.36124942452399
 51
180
  0
ARC
  8
_0-9_
  6
CONTINUOUS
 62
    7
 10
25.540366783292512
 20
52.824920123378725
 40
0.9403557437305926
 50
180
 51
319.63875057547608
  0
ARC
  8
_0-9_
  6
CONTINUOUS
 62
    7
 10
29.000011039561656
 20
49.884564379648118
 40
3.5999999999999996
 50
270
 51
293.00816749291675
  0
ARC
  8
_0-9_
  6
CONTINUOUS
 62
    7
 10
30.641632876621912
 20
46.01867796847575
 40
0.6
 50
55.581294388391505
 51
113.00816749291664
  0
ARC
  8
_0-9_
  6
CONTINUOUS
 62
    7
 10
31.546011039561932
 20
47.338564379648069
 40
1
 50
235.58129438839171
 51
34.418705611610676
  0
ARC
  8
_0-9_
  6
CONTINUOUS
 62
    7
 10
29.000011039561656
 20
49.884564379648118
 40
3.5999999999999996
 50
336.99183250708592
 51
12.266250610351529
  0
ARC
  8
_0-9_
  6
CONTINUOUS
 62
    7
 10
32.865897450734138
 20
48.242942542588146
 40
0.6
 50
156.99183250708617
 51
214.41870561161059
  0
ARC
  8
_0-9_
  6
CONTINUOUS
 62
    7
 10
29.000011039561656
 20
49.884564379648118
 40
3.5999999999999996
 50
12.266250610351568
 51
23.008167492914065
  0
ARC
  8
_0-9_
  6
CONTINUOUS
 62
    7
 10
32.865897450734138
 20
51.526186216708147
 40
0.6
 50
145.58129438838952
 51
203.00816749291386
  0
ARC
  8
_0-9_
  6
CONTINUOUS
 62
    7
 10
31.546011039561819
 20
52.430564379648168
 40
1
 50
325.58129438838944
 51
124.41870561160842
  0
ARC
  8
_0-9_
  6
CONTINUOUS
 62
    7
 10
29.000011039561656
 20
49.884564379648118
 40
3.5999999999999996
 50
66.991832507083458
 51
139.63875057547608
  0
ARC
  8
_0-9_
  6
CONTINUOUS
 62
    7
 10
30.641632876621912
 20
53.750450790820487
 40
0.6
 50
246.99183250708344
 51
304.41870561160863
  0
ARC
  8
_0-9_
  6
CONTINUOUS
 62
    7
 10
25.200011039561929
 20
44.916938652208337
 40
0.6
 50
180
 51
232.90239819868242
  0
LINE
  8
_0-9_
  6
CONTINUOUS
 62
    7
 10
24.600011039561906
 20
47.001520719038247
 11
24.600011039561906
 21
44.916938652208337
  0
LINE
  8
_0-9_
  6
CONTINUOUS
 62
    7
 10
37.000011039561883
 20
-43.515435620351916
 11
37.000011039562338
 21
70.285719827143751
  0
ARC
  8
_0-9_
  6
CONTINUOUS
 62
    7
 10
-36.399988960436616
 20
-43.515435620351916
 40
0.6
 50
180
 51
270
  0
ARC
  8
_0-9_
  6
CONTINUOUS
 62
    7
 10
36.400011039561861
 20
-43.515435620351916
 40
0.6
 50
270
 51
0
  0
LINE
  8
_0-9_
  6
CONTINUOUS
 62
    7
 10
-32.620134174947083
 20
61.285692879514677
 11
-33.80046573682975
 21
61.285692879514677
  0
ARC
  8
_0-9_
  6
CONTINUOUS
 62
    7
 10
-33.80046573682975
 20
60.685692879514541
 40
0.6
 50
90
 51
180
  0
ARC
  8
_0-9_
  6
CONTINUOUS
 62
    7
 10
-32.620134174947083
 20
62.285692879514677
 40
1
 50
270.00000000000006
 51
27.880907435181985
  0
LINE
  8
_0-9_
  6
CONTINUOUS
 62
    7
 10
-35.869636055402424
 20
70.566301002780577
 11
-31.736212666556725
 21
62.753328172242739
  0
ARC
  8
_0-9_
  6
CONTINUOUS
 62
    7
 10
-28.999988960436525
 20
49.884564379648118
 40
3.5999999999999996
 50
270
 51
319.63875057547608
  0
ARC
  8
_0-9_
  6
CONTINUOUS
 62
    7
 10
-25.540344704167268
 20
46.944208635917512
 40
0.9403557437305936
 50
0
 51
139.63875057547602
  0
ARC
  8
_0-9_
  6
CONTINUOUS
 62
    7
 10
-25.540344704167268
 20
52.824920123378725
 40
0.9403557437305926
 50
220.36124942452392
 51
0
  0
ARC
  8
_0-9_
  6
CONTINUOUS
 62
    7
 10
-28.999988960436525
 20
49.884564379648118
 40
3.5999999999999996
 50
246.99183250708325
 51
270
  0
ARC
  8
_0-9_
  6
CONTINUOUS
 62
    7
 10
-30.641610797496668
 20
46.01867796847575
 40
0.6
 50
66.991832507083359
 51
124.41870561160849
  0
ARC
  8
_0-9_
  6
CONTINUOUS
 62
    7
 10
-31.545988960436574
 20
47.338564379648069
 40
1
 50
145.58129438838932
 51
304.41870561160829
  0
ARC
  8
_0-9_
  6
CONTINUOUS
 62
    7
 10
-28.999988960436525
 20
49.884564379648118
 40
3.5999999999999996
 50
167.73374938964847
 51
203.00816749291405
  0
ARC
  8
_0-9_
  6
CONTINUOUS
 62
    7
 10
-32.865875371608894
 20
48.242942542588146
 40
0.6
 50
325.58129438838944
 51
23.00816749291382
  0
ARC
  8
_0-9_
  6
CONTINUOUS
 62
    7
 10
-28.999988960436525
 20
49.884564379648118
 40
3.5999999999999996
 50
156.99183250708595
 51
167.73374938964844
  0
ARC
  8
_0-9_
  6
CONTINUOUS
 62
    7
 10
-32.865875371608894
 20
51.526186216708147
 40
0.6
 50
336.99183250708614
 51
34.418705611610484
  0
ARC
  8
_0-9_
  6
CONTINUOUS
 62
    7
 10
-31.545988960436574
 20
52.430564379648168
 40
1
 50
55.581294388391591
 51
214.41870561161059
  0
ARC
  8
_0-9_
  6
CONTINUOUS
 62
    7
 10
-28.999988960436525
 20
49.884564379648118
 40
3.5999999999999996
 50
40.361249424523926
 51
113.00816749291656
  0
ARC
  8
_0-9_
  6
CONTINUOUS
 62
    7
 10
-30.641610797496668
 20
53.750450790820487
 40
0.6
 50
235.58129438839137
 51
293.00816749291653
  0
ARC
  8
_0-9_
  6
CONTINUOUS
 62
    7
 10
-25.199988960436684
 20
44.916938652208337
 40
0.6
 50
307.09760180131758
 51
0.0000000000000063
  0
LINE
  8
_0-9_
  6
CONTINUOUS
 62
    7
 10
-24.599988960436662
 20
47.001520719038247
 11
-24.599988960436662
 21
44.916938652208337
  0
ARC
  8
_0-9_
  6
CONTINUOUS
 62
    7
 10
-36.39998896043673
 20
70.285719827143751
 40
0.6
 50
27.88090743518222
 51
180
  0
LINE
  8
_0-9_
  6
CONTINUOUS
 62
    7
 10
-36.999988960437094
 20
70.285719827143751
 11
-36.999988960436525
 21
-43.515435620351916
  0
ARC
  8
_0-9_
  6
CONTINUOUS
 62
    7
 10
-24.00019410864158
 20
-43.715451762599848
 40
0.6
 50
89.998329108938208
 51
120.94611808112874
  0
ARC
  8
_0-9_
  6
CONTINUOUS
 62
    7
 10
-24.00015911358102
 20
-43.715451762599848
 40
0.6
 50
59.053881918871248
 51
90.001670891061792
  0
LINE
  8
_0-9_
  6
CONTINUOUS
 62
    7
 10
-22.308712952660898
 20
-44.030026383614192
 11
-23.691620061976181
 21
-43.200860999337571
  0
ARC
  8
_0-9_
  6
CONTINUOUS
 62
    7
 10
-22.000173901056058
 20
-43.515435620351916
 40
0.6
 50
239.05388191887124
 51
269.99832910893821
  0
LINE
  8
_0-9_
  6
CONTINUOUS
 62
    7
 10
-25.691640269561702
 20
-44.030026383614192
 11
-24.308733160246419
 21
-43.200860999337571
  0
ARC
  8
_0-9_
  6
CONTINUOUS
 62
    7
 10
-26.000179321166428
 20
-43.515435620351916
 40
0.6
 50
270
 51
300.94611808111915
  0
ARC
  8
_0-9_
  6
CONTINUOUS
 62
    7
 10
-28.00019410864158
 20
-43.715451762599848
 40
0.6
 50
89.998329108938208
 51
120.94611808112874
  0
ARC
  8
_0-9_
  6
CONTINUOUS
 62
    7
 10
-28.00015911358102
 20
-43.715451762599848
 40
0.6
 50
59.053881918871248
 51
90.001670891061792
  0
LINE
  8
_0-9_
  6
CONTINUOUS
 62
    7
 10
-26.308712952660898
 20
-44.030026383614192
 11
-27.691620061976181
 21
-43.200860999337571
  0
ARC
  8
_0-9_
  6
CONTINUOUS
 62
    7
 10
-26.000173901056058
 20
-43.515435620351916
 40
0.6
 50
239.05388191887124
 51
269.99832910893821
  0
LINE
  8
_0-9_
  6
CONTINUOUS
 62
    7
 10
-29.691640269561702
 20
-44.030026383614192
 11
-28.308733160246419
 21
-43.200860999337571
  0
ARC
  8
_0-9_
  6
CONTINUOUS
 62
    7
 10
-30.000179321166428
 20
-43.515435620351916
 40
0.6
 50
270
 51
300.94611808111915
  0
LINE
  8
_0-9_
  6
CONTINUOUS
 62
    7
 10
-36.399988960436616
 20
-44.115435620351825
 11
-30.000179321166428
 21
-44.115435620351825
  0
ARC
  8
_0-9_
  6
CONTINUOUS
 62
    7
 10
24.000216187766824
 20
-43.715451762599848
 40
0.6
 50
59.053881918871248
 51
90.001670891061792
  0
ARC
  8
_0-9_
  6
CONTINUOUS
 62
    7
 10
24.000181192706265
 20
-43.715451762599848
 40
0.6
 50
89.998329108938208
 51
120.94611808112874
  0
LINE
  8
_0-9_
  6
CONTINUOUS
 62
    7
 10
22.308735031786142
 20
-44.030026383614192
 11
23.691642141101426
 21
-43.200860999337571
  0
ARC
  8
_0-9_
  6
CONTINUOUS
 62
    7
 10
22.000195980181303
 20
-43.515435620351916
 40
0.6
 50
270.00167089106179
 51
300.94611808112876
  0
LINE
  8
_0-9_
  6
CONTINUOUS
 62
    7
 10
25.691662348686947
 20
-44.030026383614192
 11
24.308755239371663
 21
-43.200860999337571
  0
ARC
  8
_0-9_
  6
CONTINUOUS
 62
    7
 10
26.000201400291672
 20
-43.515435620351916
 40
0.6
 50
239.05388191888088
 51
270
  0
ARC
  8
_0-9_
  6
CONTINUOUS
 62
    7
 10
28.000216187766824
 20
-43.715451762599848
 40
0.6
 50
59.053881918871248
 51
90.001670891061792
  0
ARC
  8
_0-9_
  6
CONTINUOUS
 62
    7
 10
28.000181192706265
 20
-43.715451762599848
 40
0.6
 50
89.998329108938208
 51
120.94611808112874
  0
LINE
  8
_0-9_
  6
CONTINUOUS
 62
    7
 10
26.308735031786142
 20
-44.030026383614192
 11
27.691642141101426
 21
-43.200860999337571
  0
ARC
  8
_0-9_
  6
CONTINUOUS
 62
    7
 10
26.000195980181303
 20
-43.515435620351916
 40
0.6
 50
270.00167089106179
 51
300.94611808112876
  0
LINE
  8
_0-9_
  6
CONTINUOUS
 62
    7
 10
29.691662348686947
 20
-44.030026383614192
 11
28.308755239371663
 21
-43.200860999337571
  0
ARC
  8
_0-9_
  6
CONTINUOUS
 62
    7
 10
30.000201400291672
 20
-43.515435620351916
 40
0.6
 50
239.05388191888088
 51
270
  0
LINE
  8
_0-9_
  6
CONTINUOUS
 62
    7
 10
36.400011039561861
 20
-44.115435620351825
 11
30.000201400291672
 21
-44.115435620351825
  0
LINE
  8
_0-9_
  6
CONTINUOUS
 62
    7
 10
-29.129954477267887
 20
57.685898508576493
 11
-33.80046573682975
 21
57.685898508576493
  0
ARC
  8
_0-1_一般図
  6
CONTINUOUS
 62
    7
 10
-29.129954477267887
 20
57.085898508576491
 40
0.6
 50
65.556045219583467
 51
90
  0
LINE
  8
_0-1_一般図
  6
CONTINUOUS
 62
    7
 10
-24.951707193855952
 20
55.845770432858053
 11
-28.881672710687155
 21
57.632118395054057
  0
LINE
  8
_0-9_
  6
CONTINUOUS
 62
    7
 10
-24.599988960436662
 20
55.299550546380488
 11
-24.599988960436662
 21
52.824920123378725
  0
ARC
  8
_0-1_一般図
  6
CONTINUOUS
 62
    7
 10
-25.199988960436656
 20
55.299550546380488
 40
0.6
 50
0
 51
65.556045219583439
  0
LINE
  8
_0-1_一般図
  6
CONTINUOUS
 62
    7
 10
24.951729272981112
 20
55.845770432857819
 11
28.881694789812315
 21
57.632118395053823
  0
ARC
  8
_0-1_一般図
  6
CONTINUOUS
 62
    7
 10
29.129976556393046
 20
57.085898508576257
 40
0.6
 50
90
 51
114.44395478041653
  0
LINE
  8
_0-9_
  6
CONTINUOUS
 62
    7
 10
29.129976556393046
 20
57.685898508576493
 11
33.800487815955108
 21
57.685898508576493
  0
ARC
  8
_0-1_一般図
  6
CONTINUOUS
 62
    7
 10
25.200011039561815
 20
55.299550546380253
 40
0.6
 50
114.44395478041656
 51
180
  0
LINE
  8
_0-9_
  6
CONTINUOUS
 62
    7
 10
24.600011039561906
 20
55.299550546380253
 11
24.600011039561906
 21
52.824920123378725
  0
ARC
  8
_0-9_
  6
CONTINUOUS
 62
    7
 10
-28.999988960436525
 20
49.941876462768853
 40
6.8999999999999995
 50
253.0141914221374
 51
307.0976018013173
  0
ARC
  8
_0-1_一般図
  6
CONTINUOUS
 62
    7
 10
-31.599988960436946
 20
41.430119887302304
 40
2
 50
73.014191422137742
 51
180.0000000000004
  0
ARC
  8
_0-9_
  6
CONTINUOUS
 62
    7
 10
29.000011039561656
 20
49.941876462768853
 40
6.8999999999999995
 50
232.9023981986827
 51
286.98580857786357
  0
ARC
  8
_0-1_一般図
  6
CONTINUOUS
 62
    7
 10
31.600011039562219
 20
41.430119887302361
 40
2
 50
359.9999999999996
 51
106.98580857786386
  0
LINE
  8
_0-9_
  6
CONTINUOUS
 62
    7
 10
-23.599988960436605
 20
-38.11544905254447
 11
-1.0395133180331584
 21
-38.11544905254447
  0
LINE
  8
_0-1_一般図
  6
CONTINUOUS
 62
    7
 10
-33.599988960436605
 20
-28.11544905254452
 11
-33.599988960436946
 21
41.43011988730229
  0
ARC
  8
_0-1_一般図
  6
CONTINUOUS
 62
    7
 10
-23.599988960436605
 20
-28.11544905254447
 40
10
 50
180.00000000000031
 51
270
  0
LINE
  8
_0-9_
  6
CONTINUOUS
 62
    7
 10
23.600011039561934
 20
-38.11544905254447
 11
1.0395353971584029
 21
-38.11544905254447
  0
LINE
  8
_0-1_一般図
  6
CONTINUOUS
 62
    7
 10
33.600011039561934
 20
-28.115449052544513
 11
33.600011039562219
 21
41.430119887302347
  0
ARC
  8
_0-1_一般図
  6
CONTINUOUS
 62
    7
 10
23.600011039561934
 20
-28.11544905254447
 40
10
 50
270
 51
359.99999999999977
  0
ARC
  8
_0-9_
  6
CONTINUOUS
 62
    7
 10
-33.80046573682975
 20
58.285898508576459
 40
0.6
 50
180
 51
270
  0
LINE
  8
_0-9_
  6
CONTINUOUS
 62
    7
 10
-34.400465736829887
 20
58.285898508576459
 11
-34.400465736829887
 21
60.685692879514541
  0
ARC
  8
_0-9_
  6
CONTINUOUS
 62
    7
 10
33.800487815955108
 20
58.285898508576459
 40
0.6
 50
270
 51
0
  0
LINE
  8
_0-9_
  6
CONTINUOUS
 62
    7
 10
34.400487815955017
 20
58.285898508576459
 11
34.400487815955017
 21
60.685692879514541
  0
LINE
  8
_0-1_一般図
  6
DASHED1
 62
    3
 10
20.000011039562594
 20
-38.11544905254447
 11
20.000011039562594
 21
-43.115451786726595
  0
LINE
  8
_0-1_一般図
  6
DASHED1
 62
    3
 10
-19.999988960437406
 20
-38.11544905254447
 11
-19.999988960437406
 21
-43.115451762854981
  0
LINE
  8
_0-1_一般図
  6
DASHED1
 62
    3
 10
-36.999988960436909
 20
33.884564379648168
 11
-33.59998896043691
 21
33.884564379648168
  0
LINE
  8
_0-1_一般図
  6
DASHED1
 62
    3
 10
-36.99998896043661
 20
-26.115435620351832
 11
-33.599988960436612
 21
-26.115435620351832
  0
LINE
  8
_0-1_一般図
  6
DASHED1
 62
    3
 10
37.000011039561954
 20
-26.115435620351832
 11
33.600011039561799
 21
-26.115435620351832
  0
LINE
  8
_0-1_一般図
  6
DASHED1
 62
    3
 10
37.000011039562196
 20
33.884564379648168
 11
33.600011039562098
 21
33.884564379648168
  0
ENDBLK
  0
BLOCK
  2
-003-SRB-M8x50
 70
   64
 10
0
 20
0
 30
0
  0
LINE
  8
_0-1_一般図
  6
DASHED1
 62
    5
 10
-62.065028611141429
 20
-7.2396972327845504
 11
-63.465028611143794
 21
-7.6148261021884025
  0
LINE
  8
_0-1_一般図
  6
DASHED1
 62
    5
 10
-62.065028611141884
 20
8.0100450284077453
 11
-63.465028611143794
 21
8.3851738978120522
  0
LINE
  8
_0-1_一般図
  6
DASHED1
 62
    3
 10
-63.465028611141975
 20
8.3851738978120522
 11
-63.465028611141975
 21
-7.6148261021879478
  0
LINE
  8
_0-1_一般図
  6
DASHED1
 62
    3
 10
-71.465028611142884
 20
-7.6148261021879478
 11
-62.065028611142338
 21
-7.6148261021879478
  0
LINE
  8
_0-1_一般図
  6
DASHED1
 62
    3
 10
-71.465028611142884
 20
8.3851738978120522
 11
-62.065028611142338
 21
8.3851738978120522
  0
LINE
  8
_0-1_一般図
  6
DASHED1
 62
    3
 10
5.1349713888574797
 20
-7.6148261021879478
 11
14.534971388857116
 21
-7.6148261021879478
  0
LINE
  8
_0-1_一般図
  6
DASHED1
 62
    3
 10
5.1349713888574797
 20
8.3851738978120522
 11
14.534971388857116
 21
8.3851738978120522
  0
LINE
  8
_0-1_一般図
  6
CONTINUOUS
 62
    7
 10
28.334971388857753
 20
-7.1203796016532976
 11
19.334971388857753
 21
-7.1203796016532976
  0
ARC
  8
_0-1_一般図
  6
CONTINUOUS
 62
    7
 10
15.251638055524268
 20
0.3851738978115975
 40
15.083333333333353
 50
330.15827583531564
 51
29.841724164684361
  0
LINE
  8
_0-1_一般図
  6
CONTINUOUS
 62
    7
 10
28.334971388857753
 20
7.8907273972769474
 11
19.334971388857753
 21
7.8907273972769474
  0
LINE
  8
_0-1_一般図
  6
CONTINUOUS
 62
    7
 10
28.334971388857753
 20
-7.1203796016532976
 11
19.334971388857753
 21
-7.1203796016532976
  0
ARC
  8
_0-1_一般図
  6
CONTINUOUS
 62
    7
 10
15.251638055524268
 20
0.3851738978115975
 40
15.083333333333353
 50
330.15827583531564
 51
29.841724164684361
  0
LINE
  8
_0-1_一般図
  6
CONTINUOUS
 62
    7
 10
28.334971388857753
 20
7.8907273972769474
 11
19.334971388857753
 21
7.8907273972769474
  0
LINE
  8
_0-1_一般図
  6
CONTINUOUS
 62
    7
 10
28.334971388857753
 20
-7.1203796016532976
 11
19.334971388857753
 21
-7.1203796016532976
  0
ARC
  8
_0-1_一般図
  6
CONTINUOUS
 62
    7
 10
15.251638055524268
 20
0.3851738978115975
 40
15.083333333333353
 50
330.15827583531564
 51
29.841724164684361
  0
LINE
  8
_0-1_一般図
  6
CONTINUOUS
 62
    7
 10
28.334971388857753
 20
7.8907273972769474
 11
19.334971388857753
 21
7.8907273972769474
  0
LINE
  8
_0-1_一般図
  6
CONTINUOUS
 62
    7
 10
28.334971388857753
 20
-7.1203796016532976
 11
19.334971388857753
 21
-7.1203796016532976
  0
ARC
  8
_0-1_一般図
  6
CONTINUOUS
 62
    7
 10
15.251638055524268
 20
0.3851738978115975
 40
15.083333333333353
 50
330.15827583531564
 51
29.841724164684361
  0
LINE
  8
_0-1_一般図
  6
CONTINUOUS
 62
    7
 10
28.334971388857753
 20
7.8907273972769474
 11
19.334971388857753
 21
7.8907273972769474
  0
LINE
  8
_0-1_一般図
  6
CONTINUOUS
 62
    7
 10
-58.799965101682687
 20
8.3851738978120522
 11
-58.799965101682687
 21
-7.6148261021879478
  0
ARC
  8
_0-1_一般図
  6
CONTINUOUS
 62
    7
 10
7.047148187304515
 20
11.643504147009622
 40
12.03611111111028
 50
341.83267392811695
 51
18.167326071882439
  0
ARC
  8
_0-1_一般図
  6
CONTINUOUS
 62
    7
 10
7.047148187304515
 20
-10.873156351385973
 40
12.03611111111028
 50
341.83267392811757
 51
18.167326071883032
  0
ARC
  8
_0-1_一般図
  6
CONTINUOUS
 62
    7
 10
-28.161185146027606
 20
0.3851738978115975
 40
47.244444444442678
 50
350.85889745137644
 51
9.1411025486235555
  0
LINE
  8
_0-1_一般図
  6
CONTINUOUS
 62
    7
 10
28.334971388857753
 20
-7.1203796016532976
 11
18.483259298414737
 21
-7.1203796016532976
  0
LINE
  8
_0-1_一般図
  6
CONTINUOUS
 62
    7
 10
28.334971388857753
 20
7.8907273972769474
 11
18.483259298414737
 21
7.8907273972769474
  0
LINE
  8
_0-1_一般図
  6
CONTINUOUS
 62
    7
 10
28.334971388857753
 20
-14.625933101118648
 11
18.483259298414737
 21
-14.625933101118648
  0
LINE
  8
_0-1_一般図
  6
CONTINUOUS
 62
    7
 10
17.334971388857753
 20
-16.614826102188403
 11
18.483259298414737
 21
-14.625933101118648
  0
LINE
  8
_0-1_一般図
  6
CONTINUOUS
 62
    7
 10
28.334971388857753
 20
15.396280896741843
 11
18.483259298414737
 21
15.396280896741843
  0
LINE
  8
_0-1_一般図
  6
CONTINUOUS
 62
    7
 10
17.334971388857753
 20
17.385173897811597
 11
18.483259298414737
 21
15.396280896741843
  0
LINE
  8
_0-1_一般図
  6
CONTINUOUS
 62
    7
 10
-62.065028611142338
 20
-7.6148261021879478
 11
5.1349713888574797
 21
-7.6148261021879478
  0
LINE
  8
_0-1_一般図
  6
CONTINUOUS
 62
    7
 10
-62.065028611142338
 20
8.3851738978120522
 11
5.1349713888574797
 21
8.3851738978120522
  0
LINE
  8
_0-1_一般図
  6
CONTINUOUS
 62
    7
 10
30.334971388857753
 20
13.396280896742297
 11
30.334971388857753
 21
-12.625933101118648
  0
ARC
  8
_0-1_一般図
  6
CONTINUOUS
 62
    7
 10
31.334971388858207
 20
-12.104822098984954
 40
1
 50
92.292442775956204
 51
180
  0
ARC
  8
_0-1_一般図
  6
CONTINUOUS
 62
    7
 10
30.834971388857753
 20
0.3851738978115975
 40
11.5
 50
272.29244277595592
 51
92.491906368979969
  0
ARC
  8
_0-1_一般図
  6
CONTINUOUS
 62
    7
 10
31.334971388858207
 20
12.875169894608604
 40
1
 50
180
 51
267.7075572240438
  0
ARC
  8
_0-1_一般図
  6
CONTINUOUS
 62
    7
 10
25.814138055524268
 20
11.643504147009622
 40
4.5208333333333046
 50
303.89023816900772
 51
33.890238169010438
  0
LINE
  8
_0-1_一般図
  6
CONTINUOUS
 62
    7
 10
28.334971388857753
 20
15.396280896741843
 11
30.334971388857753
 21
13.396280896742297
  0
ARC
  8
_0-1_一般図
  6
CONTINUOUS
 62
    7
 10
25.814138055524268
 20
-10.873156351385973
 40
4.5208333333333046
 50
326.10976183098956
 51
56.109761830992277
  0
LINE
  8
_0-1_一般図
  6
CONTINUOUS
 62
    7
 10
28.334971388857753
 20
-14.625933101118648
 11
30.334971388857753
 21
-12.625933101118648
  0
ARC
  8
_0-1_一般図
  6
CONTINUOUS
 62
    7
 10
15.251638055524268
 20
0.3851738978115975
 40
15.083333333333353
 50
330.15827583531564
 51
29.841724164684361
  0
LINE
  8
_0-1_一般図
  6
CONTINUOUS
 62
    7
 10
17.334971388857753
 20
17.385173897811597
 11
14.534971388858025
 21
17.385173897811597
  0
LINE
  8
_0-1_一般図
  6
CONTINUOUS
 62
    7
 10
17.334971388857753
 20
-16.614826102188403
 11
14.534971388858025
 21
-16.614826102188403
  0
LINE
  8
_0-1_一般図
  6
CONTINUOUS
 62
    7
 10
17.334971388857753
 20
17.385173897811597
 11
17.334971388857753
 21
-16.614826102188403
  0
LINE
  8
_0-1_一般図
  6
CONTINUOUS
 62
    7
 10
28.334971388857753
 20
7.8907273972769474
 11
19.334971388857753
 21
7.8907273972769474
  0
ARC
  8
_0-1_一般図
  6
CONTINUOUS
 62
    7
 10
15.251638055524268
 20
0.3851738978115975
 40
15.083333333333353
 50
330.15827583531564
 51
29.841724164684361
  0
LINE
  8
_0-1_一般図
  6
CONTINUOUS
 62
    7
 10
28.334971388857753
 20
-7.1203796016532976
 11
19.334971388857753
 21
-7.1203796016532976
  0
LINE
  8
_0-1_一般図
  6
CONTINUOUS
 62
    2
 10
-58.799965101682687
 20
7.1351738978120522
 11
-62.065028611141884
 21
8.0100450284077453
  0
LINE
  8
_0-1_一般図
  6
CONTINUOUS
 62
    2
 10
-58.799965101682687
 20
7.1351738978120522
 11
5.1349713888574797
 21
7.1351738978120522
  0
LINE
  8
_0-1_一般図
  6
CONTINUOUS
 62
    2
 10
-58.799965101682687
 20
-6.3648261021884025
 11
-62.065028611141429
 21
-7.2396972327845504
  0
LINE
  8
_0-1_一般図
  6
CONTINUOUS
 62
    2
 10
-58.799965101682687
 20
-6.3648261021879478
 11
5.1349713888574797
 21
-6.3648261021879478
  0
LINE
  8
_0-1_一般図
  6
DASHED1
 62
    5
 10
5.1349713888575934
 20
7.1351738978120522
 11
14.534971388857116
 21
7.1351738978120522
  0
LINE
  8
_0-1_一般図
  6
DASHED1
 62
    5
 10
5.1349713888575366
 20
-6.3648261021879478
 11
14.534971388857116
 21
-6.3648261021879478
  0
ARC
  8
_0-1_一般図
  6
CONTINUOUS
 62
    7
 10
-72.065028611141969
 20
-17.014826102188394
 40
0.6
 50
222.69157329817966
 51
0
  0
LINE
  8
_0-1_一般図
  6
CONTINUOUS
 62
    7
 10
-71.465028611141975
 20
17.785173897811589
 11
-71.465028611141975
 21
-17.014826102188394
  0
ARC
  8
_0-1_一般図
  6
CONTINUOUS
 62
    7
 10
-72.065028611141969
 20
17.785173897811589
 40
0.6
 50
0
 51
137.30842670182034
  0
ARC
  8
_0-1_一般図
  6
CONTINUOUS
 62
    7
 10
-53.203263905259668
 20
0.3851738978115975
 40
26.261764705882307
 50
137.30842670182039
 51
222.69157329817955
  0
ENDBLK
  0
ENDSEC
  0
SECTION
  2
ENTITIES
  0
LINE
  8
ADD_LINE
  6
DOT
 62
    9
 10
538.67385039458418
 20
50
 11
538.67385039458418
 21
25
  0
LINE
  8
ADD_LINE
  6
DOT
 62
    9
 10
578.67385039458418
 20
50
 11
578.67385039458418
 21
25
  0
LINE
  8
ADD_LINE
  6
DOT
 62
    9
 10
820.51077559187615
 20
50
 11
820.51077559187615
 21
25
  0
LINE
  8
ADD_LINE
  6
DOT
 62
    9
 10
60.54106559187619
 20
50
 11
60.54106559187619
 21
25
  0
TEXT
  8
_f-a_
 62
    7
 10
289.60745799323013
 20
50
 40
6
 41
0.8333333333333333
 50
0
  1
名　　称
  0
TEXT
  8
_f-a_
 62
    7
 10
548.67385039458418
 20
50
 40
6
 41
0.8333333333333333
 50
0
  1
縮　　尺
  0
TEXT
  8
_f-a_
 62
    7
 10
689.59231299323017
 20
50
 40
6
 41
0.8333333333333333
 50
0
  1
品　　番
  0
LINE
  8
ADD_LINE
  6
DOT
 62
    9
 10
60.54106559187619
 20
50
 11
820.51077559187615
 21
50
  0
LINE
  8
ADD_LINE
  6
DOT
 62
    9
 10
60.54106559187619
 20
25
 11
820.51077559187615
 21
25
  0
TEXT
  8
_0-a_
 62
    3
 10
552.17385039458418
 20
32.5
 40
10
 41
0.8
 50
0
  1
1/2
  0
TEXT
  8
_0-a_
 62
    3
 10
232.60745799323013
 20
32.5
 40
10
 41
0.8
 50
0
  1
防犯用雨とい　バンドレス丸とい
  0
TEXT
  8
_0-a_
 62
    3
 10
679.59231299323017
 20
32.5
 40
10
 41
0.8
 50
0
  1
MBA-114-1
  0
LINE
  8
_0-1_一般図
  6
CENTER1
 62
    4
 10
98.266630797189578
 20
290
 11
228.18217788763482
 21
290
  0
POINT
  8
_0-9_
 62
    4
 10
106.91758150960266
 20
209
  0
POINT
  8
_0-9_
 62
    4
 10
220.91758150960263
 20
209
  0
LINE
  8
_0-9_
  6
CONTINUOUS
 62
    4
 10
106.91758150960266
 20
207
 11
106.91758150960266
 21
288
  0
LINE
  8
_0-9_
  6
CONTINUOUS
 62
    4
 10
220.91758150960263
 20
207
 11
220.91758150960263
 21
288
  0
POINT
  8
_0-9_
 62
    4
 10
115.85317159956628
 20
262.25
  0
POINT
  8
_0-9_
 62
    4
 10
211.98199141963897
 20
317.75
  0
POINT
  8
_0-9_
 62
    4
 10
211.98199141963897
 20
317.75
  0
POINT
  8
_0-9_
 62
    4
 10
213.28103198785303
 20
318.50000142174662
  0
LINE
  8
_0-9_
  6
CONTINUOUS
 62
    4
 10
214.28103198785303
 20
316.76795061417772
 11
214.28103060628231
 21
316.76795300712837
  0
LINE
  8
_0-9_
  6
CONTINUOUS
 62
    4
 10
211.98199141963897
 20
317.75
 11
213.28103198785303
 21
318.50000142174662
  0
TEXT
  8
_0-9_
 62
    3
 10
216.1305479452742
 20
321.29987076520314
 40
10
 41
0.8
 50
29.999999999999897
  1
1.5
  0
LINE
  8
_0-9_
  6
CONTINUOUS
 62
    4
 10
115.85317159956628
 20
262.25
 11
211.98199141963897
 21
317.75
  0
TEXT
  8
_0-9_
 62
    3
 10
153.89130206797381
 20
285.36602540378442
 40
10
 41
0.8
 50
29.999999999999979
  1
φ111
  0
LINE
  8
_0-9_
  6
CONTINUOUS
 62
    4
 10
106.91758150960266
 20
209
 11
220.91758150960266
 21
209
  0
TEXT
  8
_0-9_
 62
    3
 10
152.91758150960266
 20
210
 40
10
 41
0.8
 50
0
  1
φ114
  0
LINE
  8
_0-1_一般図
  6
CENTER1
 62
    4
 10
309.33851725923199
 20
290
 11
741.25175776752269
 21
290
  0
LINE
  8
_0-1_一般図
  6
CONTINUOUS
 62
    7
 10
318.08241849039757
 20
233
 11
488.07929897227609
 21
233
  0
INSERT
  2
-000-ATN-114
  8
_0-1_一般図
 10
163.91758150960266
 20
338.46631499011698
 41
0.5
 42
0.5
 50
180
  0
POINT
  8
_0-9_
 62
    4
 10
244.91758150960254
 20
233
  0
LINE
  8
_0-9_
  6
CONTINUOUS
 62
    4
 10
246.91758150960254
 20
233
 11
165.91758150960266
 21
233
  0
LINE
  8
_0-1_一般図
  6
CONTINUOUS
 62
    7
 10
723.33659043654188
 20
345.29999999999995
 11
678.08241849039757
 21
345.29999999999995
  0
ARC
  8
_0-1_一般図
  6
CONTINUOUS
 62
    7
 10
723.33659043654188
 20
335.29999999999995
 40
10
 50
81.469234390051867
 51
90
  0
LINE
  8
_0-1_一般図
  6
CONTINUOUS
 62
    7
 10
723.33659043654188
 20
234.70000000000007
 11
678.08241849039757
 21
234.70000000000005
  0
ARC
  8
_0-1_一般図
  6
CONTINUOUS
 62
    7
 10
723.336590436542
 20
244.70000000000005
 40
10
 50
270
 51
278.53076560994816
  0
LINE
  8
_0-1_一般図
  6
CONTINUOUS
 62
    7
 10
724.81999496584433
 20
345.18936352868297
 11
729.08241849039769
 21
344.54999999999995
  0
LINE
  8
_0-1_一般図
  6
CONTINUOUS
 62
    7
 10
729.08241849039769
 20
344.54999999999995
 11
729.08241849039769
 21
235.45000000000007
  0
LINE
  8
_0-1_一般図
  6
CONTINUOUS
 62
    7
 10
724.81999496584444
 20
234.81063647131714
 11
729.08241849039769
 21
235.45000000000007
  0
LINE
  8
_0-1_一般図
  6
CONTINUOUS
 62
    5
 10
678.08241849039757
 20
342.49061752131053
 11
678.08241849039757
 21
237.21618308726764
  0
LINE
  8
_0-1_一般図
  6
CONTINUOUS
 62
    5
 10
724.08241849039746
 20
342.49061752131047
 11
724.08241849039769
 21
237.21618308726761
  0
ARC
  8
_0-1_一般図
  6
CONTINUOUS
 62
    7
 10
672.50478458344378
 20
337
 40
10
 50
56.09873800313332
 51
90
  0
LINE
  8
_0-1_一般図
  6
CONTINUOUS
 62
    7
 10
669.08241849039769
 20
347
 11
672.50478458344378
 21
347
  0
ARC
  8
_0-1_一般図
  6
CONTINUOUS
 62
    7
 10
672.50478458344378
 20
243
 40
10
 50
270
 51
303.90126199686665
  0
LINE
  8
_0-1_一般図
  6
CONTINUOUS
 62
    7
 10
507.82567190860198
 20
233
 11
672.50478458344378
 21
233
  0
POINT
  8
_0-9_
 62
    4
 10
318.08241849039757
 20
209
  0
LINE
  8
_0-9_
  6
CONTINUOUS
 62
    4
 10
318.08241849039757
 20
209
 11
678.08241849039757
 21
209
  0
POINT
  8
_0-9_
 62
    4
 10
678.08241849039757
 20
209
  0
POINT
  8
_0-9_
 62
    4
 10
729.08241849039769
 20
209
  0
LINE
  8
_0-9_
  6
CONTINUOUS
 62
    4
 10
678.08241849039757
 20
209
 11
729.08241849039769
 21
209
  0
TEXT
  8
_0-9_
 62
    3
 10
699.33241849039757
 20
210
 40
10
 41
0.8
 50
0
  1
51
  0
LINE
  8
_0-9_
  6
CONTINUOUS
 62
    4
 10
318.08241849039757
 20
230.9999999975519
 11
318.08241849039757
 21
207
  0
LINE
  8
_0-9_
  6
CONTINUOUS
 62
    4
 10
729.08241849039769
 20
233.45000000000007
 11
729.08241849039769
 21
206.25
  0
LINE
  8
_0-9_
  6
CONTINUOUS
 62
    4
 10
678.08241849039757
 20
232.70000000000005
 11
678.08241849039757
 21
207
  0
TEXT
  8
_0-9_
 62
    3
 10
475.83241849039757
 20
210
 40
10
 41
0.8
 50
0
  1
2900・3900
  0
POINT
  8
_0-9_
 62
    4
 10
244.91758150960254
 20
347
  0
LINE
  8
_0-9_
  6
CONTINUOUS
 62
    4
 10
244.91758150960254
 20
233
 11
244.91758150960254
 21
347
  0
TEXT
  8
_0-9_
 62
    3
 10
243.91758150960254
 20
283.5
 40
10
 41
0.8
 50
90
  1
114
  0
LINE
  8
_0-9_
  6
CONTINUOUS
 62
    4
 10
246.91758150960254
 20
347
 11
165.91758150960266
 21
347
  0
INSERT
  2
-003-SRB-M8x50
  8
_0-1_一般図
 10
149.68506720403167
 20
369.43677657060982
 41
0.5
 42
0.5
 50
180
  0
INSERT
  2
-002-M-A-1
  8
_0-1_一般図
 10
163.91758702938398
 20
379.68647181152784
 41
0.5
 42
0.5
 50
180
  0
LINE
  8
_0-1_一般図
  6
CENTER1
 62
    4
 10
192.82205803353671
 20
369.24418962170375
 11
125.54326367850399
 21
369.24418962170375
  0
INSERT
  2
-001-M-B-1
  8
_0-1_一般図
 10
68.634004621938345
 20
383.15084324586428
 41
0.5
 42
0.5
 50
180
  0
LINE
  8
_0-1_一般図
  6
CENTER1
 62
    4
 10
163.91758150960266
 20
225.41280454855939
 11
163.91758150960266
 21
409.44806868624386
  0
POINT
  8
_0-9_
 62
    4
 10
244.91758150960254
 20
347
  0
POINT
  8
_0-9_
 62
    4
 10
244.91758150960254
 20
406.74418962170375
  0
LINE
  8
_0-9_
  6
CONTINUOUS
 62
    4
 10
246.91758150960254
 20
406.74418962170375
 11
187.31758150960266
 21
406.74418962170375
  0
POINT
  8
_0-9_
 62
    4
 10
142.41758150960266
 20
422.74418962170375
  0
POINT
  8
_0-9_
 62
    4
 10
185.41758150960266
 20
422.74418962170375
  0
LINE
  8
_0-9_
  6
CONTINUOUS
 62
    4
 10
142.41758150960266
 20
424.74418962170375
 11
142.41758150960266
 21
408.64418962170373
  0
LINE
  8
_0-9_
  6
CONTINUOUS
 62
    4
 10
185.41758150960266
 20
424.74418962170375
 11
185.41758150960266
 21
408.64418962170373
  0
LINE
  8
_0-9_
  6
CONTINUOUS
 62
    4
 10
142.41758150960266
 20
422.74418962170375
 11
185.41758150960266
 21
422.74418962170375
  0
TEXT
  8
_0-9_
 62
    3
 10
159.66758150960266
 20
423.74418962170375
 40
10
 41
0.8
 50
0
  1
43
  0
LINE
  8
_0-1_一般図
  6
CONTINUOUS
 62
    7
 10
318.08241849039757
 20
406.74418962170375
 11
318.08241849039757
 21
233
  0
LINE
  8
_0-1_一般図
  6
CONTINUOUS
 62
    7
 10
318.08241849039757
 20
406.74418962170375
 11
488.07929897227609
 21
406.74418962170375
  0
LINE
  8
_0-1_一般図
  6
CONTINUOUS
 62
    7
 10
507.82567190860198
 20
406.74418962170375
 11
669.08241849039769
 21
406.74418962170375
  0
LINE
  8
_0-1_一般図
  6
CONTINUOUS
 62
    7
 10
318.08241849039757
 20
344.14418962170373
 11
488.07929897227609
 21
344.14418962170373
  0
LINE
  8
_0-1_一般図
  6
CONTINUOUS
 62
    7
 10
507.82567190860198
 20
344.14418962170373
 11
669.08241849039769
 21
344.14418962170373
  0
LINE
  8
_0-1_一般図
  6
CONTINUOUS
 62
    7
 10
669.08241849039769
 20
406.74418962170375
 11
669.08241849039769
 21
344.14418962170373
  0
LINE
  8
_0-1_一般図
  6
DASHED1
 62
    3
 10
318.08241849039757
 20
401.74418962170375
 11
488.07929897227609
 21
401.74418962170375
  0
LINE
  8
_0-1_一般図
  6
DASHED1
 62
    3
 10
507.82567190860198
 20
401.74418962170375
 11
669.08241849039769
 21
401.74418962170375
  0
LINE
  8
_0-1_一般図
  6
DASHED1
 62
    3
 10
669.08241849039769
 20
347
 11
507.82567190860198
 21
347
  0
LINE
  8
_0-1_一般図
  6
DASHED1
 62
    3
 10
488.07929897227609
 20
347
 11
318.08241849039757
 21
347
  0
POINT
  8
_0-9_
 62
    4
 10
318.08241849039757
 20
422.74418962170375
  0
POINT
  8
_0-9_
 62
    4
 10
669.08241849039769
 20
422.74418962170375
  0
LINE
  8
_0-9_
  6
CONTINUOUS
 62
    4
 10
318.08241849039757
 20
424.74418962170375
 11
318.08241849039757
 21
408.74418962170375
  0
LINE
  8
_0-9_
  6
CONTINUOUS
 62
    4
 10
669.08241849039769
 20
424.74418962170375
 11
669.08241849039769
 21
408.74418962170375
  0
LINE
  8
_0-9_
  6
CONTINUOUS
 62
    4
 10
318.08241849039757
 20
422.74418962170375
 11
669.08241849039769
 21
422.74418962170375
  0
LINE
  8
_0-9_
  6
CONTINUOUS
 62
    4
 10
244.91758150960254
 20
347
 11
244.91758150960254
 21
406.74418962170375
  0
TEXT
  8
_0-9_
 62
    3
 10
243.91758150960254
 20
363.62209481085188
 40
10
 41
0.8
 50
90
  1
60～77
  0
TEXT
  8
_0-9_
 62
    3
 10
471.33241849039757
 20
423.74418962170375
 40
10
 41
0.8
 50
0
  1
2891・3891
  0
CIRCLE
  8
_0-1_一般図
  6
CONTINUOUS
 62
    7
 10
398.08241849039757
 20
369.24418962170375
 40
9.0000000000002132
  0
ARC
  8
_0-1_一般図
  6
DASHED1
 62
    3
 10
398.08241849039757
 20
388.54418962170377
 40
4.200000000000002
 50
0
 51
180
  0
ARC
  8
_0-1_一般図
  6
DASHED1
 62
    3
 10
398.08241849039757
 20
366.9441896217038
 40
4.200000000000002
 50
180
 51
0
  0
LINE
  8
_0-1_一般図
  6
DASHED1
 62
    3
 10
402.28241849039756
 20
388.54418962170377
 11
402.28241849039756
 21
366.9441896217038
  0
LINE
  8
_0-1_一般図
  6
DASHED1
 62
    3
 10
393.88241849039758
 20
388.54418962170377
 11
393.88241849039758
 21
366.9441896217038
  0
LINE
  8
_0-1_一般図
  6
CENTER1
 62
    4
 10
385.93089742244894
 20
369.24418962170375
 11
409.51884808216505
 21
369.24418962170375
  0
LINE
  8
_0-1_一般図
  6
CENTER1
 62
    4
 10
398.08241849039757
 20
394.98295061596497
 11
398.08241849039757
 21
356.14648998636591
  0
CIRCLE
  8
_0-1_一般図
  6
DASHED1
 62
    3
 10
398.08241849039757
 20
369.24418962170375
 40
6
  0
CIRCLE
  8
_0-1_一般図
  6
CONTINUOUS
 62
    7
 10
589.08241849039769
 20
369.24418962170375
 40
9.0000000000002132
  0
ARC
  8
_0-1_一般図
  6
DASHED1
 62
    3
 10
589.08241849039769
 20
388.54418962170377
 40
4.200000000000002
 50
0
 51
180
  0
ARC
  8
_0-1_一般図
  6
DASHED1
 62
    3
 10
589.08241849039769
 20
366.9441896217038
 40
4.200000000000002
 50
180
 51
0
  0
LINE
  8
_0-1_一般図
  6
DASHED1
 62
    3
 10
593.28241849039762
 20
388.54418962170377
 11
593.28241849039762
 21
366.9441896217038
  0
LINE
  8
_0-1_一般図
  6
DASHED1
 62
    3
 10
584.88241849039764
 20
388.54418962170377
 11
584.88241849039764
 21
366.9441896217038
  0
LINE
  8
_0-1_一般図
  6
CENTER1
 62
    4
 10
576.93089742244899
 20
369.24418962170375
 11
600.51884808216505
 21
369.24418962170375
  0
LINE
  8
_0-1_一般図
  6
CENTER1
 62
    4
 10
589.08241849039769
 20
394.98295061596497
 11
589.08241849039769
 21
356.14648998636591
  0
CIRCLE
  8
_0-1_一般図
  6
DASHED1
 62
    3
 10
589.08241849039769
 20
369.24418962170375
 40
6
  0
ENDSEC
  0
EOF
