  0
SECTION
  2
HEADER
  9
$ACADVER
  1
AC1009
  9
$INSBASE
 10
0
 20
0
 30
0
  9
$EXTMIN
 10
0
 20
0
  9
$EXTMAX
 10
840
 20
594
  9
$LIMMIN
 10
0
 20
0
  9
$LIMMAX
 10
840
 20
594
  9
$LTSCALE
 40
2
  0
ENDSEC
  0
SECTION
  2
TABLES
  0
TABLE
  2
LTYPE
 70
     9
  0
LTYPE
  2
CONTINUOUS
 70
    64
  3
実線
 72
    65
 73
     0
 40
0.0
  0
LTYPE
  2
DASHED1
 70
    64
  3
--  --  --  --  --  --  --  --  
 72
    65
 73
     2
 40
2.5
 49
1.25
 49
-1.25
  0
LTYPE
  2
DASHED2
 70
    64
  3
----    ----    ----    ----    
 72
    65
 73
     2
 40
5.0
 49
2.5
 49
-2.5
  0
LTYPE
  2
DASHED3
 70
    64
  3
------  ------  ------  ------  
 72
    65
 73
     2
 40
5.0
 49
3.75
 49
-1.25
  0
LTYPE
  2
CENTER1
 70
    64
  3
----- - ----- - ----- - ----- - 
 72
    65
 73
     4
 40
10.0
 49
6.25
 49
-1.25
 49
1.25
 49
-1.25
  0
LTYPE
  2
CENTER2
 70
    64
  3
----------  --  ----------  --  
 72
    65
 73
     4
 40
20.0
 49
12.5
 49
-2.5
 49
2.5
 49
-2.5
  0
LTYPE
  2
PHANTOM1
 70
    64
  3
--- - - --- - - --- - - --- - - 
 72
    65
 73
     6
 40
10.0
 49
3.25
 49
-1.25
 49
1.25
 49
-1.25
 49
1.25
 49
-1.25
  0
LTYPE
  2
PHANTOM2
 70
    64
  3
--------  -  -  --------  -  -  
 72
    65
 73
     6
 40
20.0
 49
10.0
 49
-2.5
 49
1.25
 49
-2.5
 49
1.25
 49
-2.5
  0
LTYPE
  2
DOT
 70
    64
  3
-   -   -   -   -   -   -   -   
 72
    65
 73
     2
 40
2.5
 49
0.625
 49
-1.875
  0
LTYPE
  2
DUMMY
 70
    64
  3
ダミー
 72
    65
 73
     0
 40
0.0
  0
LTYPE
  2
RAND1
 70
    64
  3
ランダム線1
 72
    65
 73
     4
 40
10.0
 49
1.0
 49
-2.0
 49
3.0
 49
-4.0
  0
LTYPE
  2
RAND2
 70
    64
  3
ランダム線2
 72
    65
 73
     4
 40
14.0
 49
2.0
 49
-3.0
 49
4.0
 49
-5.0
  0
LTYPE
  2
RAND3
 70
    64
  3
ランダム線3
 72
    65
 73
     4
 40
18.0
 49
3.0
 49
-4.0
 49
5.0
 49
-6.0
  0
LTYPE
  2
RAND4
 70
    64
  3
ランダム線4
 72
    65
 73
     4
 40
22.0
 49
4.0
 49
-5.0
 49
6.0
 49
-7.0
  0
LTYPE
  2
RAND5
 70
    64
  3
ランダム線5
 72
    65
 73
     4
 40
26.0
 49
5.0
 49
-6.0
 49
7.0
 49
-8.0
  0
LTYPE
  2
LONG1
 70
    64
  3
----------  --  ----------  --  
 72
    65
 73
     4
 40
40.0
 49
32.5
 49
-2.5
 49
2.5
 49
-2.5
  0
LTYPE
  2
LONG2
 70
    64
  3
--------  -  -  --------  -  -  
 72
    65
 73
     6
 40
40.0
 49
30.0
 49
-2.5
 49
1.25
 49
-2.5
 49
1.25
 49
-2.5
  0
LTYPE
  2
LONG3
 70
    64
  3
+++++++++++++++..+++++++++++++++
 72
    65
 73
     2
 40
40.0
 49
37.5
 49
-2.5
  0
LTYPE
  2
LONG4
 70
    64
  3
+++++++++++++++..+++++++++++++++
 72
    65
 73
     2
 40
80.0
 49
75.0
 49
-5.0
  0
LTYPE
  2
LONG5
 70
    64
  3
----------  --  ----------  --  
 72
    65
 73
     4
 40
60.0
 49
37.5
 49
-7.5
 49
7.5
 49
-7.5
  0
LTYPE
  2
dashed
 70
   64
  3
-------   -------------   ------
 72
   65
 73
    2
 40
7.5
 49
6
 49
-1.5
  0
LTYPE
  2
dashed_spaced
 70
   64
  3
----        --------        ----
 72
   65
 73
    2
 40
12
 49
6
 49
-6
  0
LTYPE
  2
long_dashed_dotted
 70
   64
  3
------------- --- --------------
 72
   65
 73
    4
 40
15.25
 49
12
 49
-1.5
 49
0.25
 49
-1.5
  0
LTYPE
  2
long_dashed_double-dotted
 70
   64
  3
----------- --- --- ------------
 72
   65
 73
    6
 40
17
 49
12
 49
-1.5
 49
0.25
 49
-1.5
 49
0.25
 49
-1.5
  0
LTYPE
  2
long_dashed_triplicate-dotted
 70
   64
  3
--------- --- --- --- ----------
 72
   65
 73
    8
 40
18.75
 49
12
 49
-1.5
 49
0.25
 49
-1.5
 49
0.25
 49
-1.5
 49
0.25
 49
-1.5
  0
LTYPE
  2
dotted
 70
   64
  3
   -       -       -       -    
 72
   65
 73
    2
 40
1.75
 49
0.25
 49
-1.5
  0
LTYPE
  2
chain
 70
   64
  3
-------------- -- --------------
 72
   65
 73
    4
 40
18.5
 49
12
 49
-1.5
 49
3.5
 49
-1.5
  0
LTYPE
  2
chain_double_dash
 70
   64
  3
------------ -- -- -------------
 72
   65
 73
    6
 40
23.5
 49
12
 49
-1.5
 49
3.5
 49
-1.5
 49
3.5
 49
-1.5
  0
LTYPE
  2
dashed_dotted
 70
   64
  3
-----------     -     ----------
 72
   65
 73
    4
 40
9.25
 49
6
 49
-1.5
 49
0.25
 49
-1.5
  0
LTYPE
  2
double-dashed_dotted
 70
   64
  3
------   -----------   -   -----
 72
   65
 73
    6
 40
16.75
 49
6
 49
-1.5
 49
6
 49
-1.5
 49
0.25
 49
-1.5
  0
LTYPE
  2
dashed_double-dotted
 70
   64
  3
---------    -    -    ---------
 72
   65
 73
    6
 40
11
 49
6
 49
-1.5
 49
0.25
 49
-1.5
 49
0.25
 49
-1.5
  0
LTYPE
  2
double-dashed_double-dotted
 70
   64
  3
-----   ---------   -   -   ----
 72
   65
 73
    8
 40
18.5
 49
6
 49
-1.5
 49
6
 49
-1.5
 49
0.25
 49
-1.5
 49
0.25
 49
-1.5
  0
LTYPE
  2
dashed_triplicate-dotted
 70
   64
  3
-------    -    -    -    ------
 72
   65
 73
    8
 40
12.75
 49
6
 49
-1.5
 49
0.25
 49
-1.5
 49
0.25
 49
-1.5
 49
0.25
 49
-1.5
  0
LTYPE
  2
double-dashed_triplicate-dotted
 70
   64
  3
-----  ---------  -  -  -  -----
 72
   65
 73
   10
 40
20.25
 49
6
 49
-1.5
 49
6
 49
-1.5
 49
0.25
 49
-1.5
 49
0.25
 49
-1.5
 49
0.25
 49
-1.5
  0
LTYPE
  2
undefined
 70
   64
  3
--------------------------------
 72
   65
 73
    0
 40
0
  0
ENDTAB
  0
TABLE
  2
STYLE
  5
3
100
AcDbSymbolTable
 70
     1
  0
STYLE
  5
10
100
AcDbSymbolTableRecord
100
AcDbTextStyleTableRecord
  2
STANDARD
 70
     0
 40
0.0
 41
1.0
 50
0.0
 71
     0
 42
0.2
  3
txt
  4
bigfont.shx
  0
STYLE
  5
26
100
AcDbSymbolTableRecord
100
AcDbTextStyleTableRecord
  2
TATEGAKI
 70
    68
 40
0.0
 41
1.0
 50
0.0
 71
     0
 42
1.0
  3
txt
  4
bigfont.shx
  0
ENDTAB
  0
TABLE
  2
LAYER
 70
    6
  0
LAYER
  2
_0-1_一般図
 70
   64
 62
    7
  6
CONTINUOUS
  0
LAYER
  2
_0-9_
 70
   64
 62
    7
  6
CONTINUOUS
  0
LAYER
  2
_0-a_
 70
   64
 62
    7
  6
CONTINUOUS
  0
LAYER
  2
_f-1_一般図
 70
   64
 62
    7
  6
CONTINUOUS
  0
LAYER
  2
_f-a_
 70
   64
 62
    7
  6
CONTINUOUS
  0
LAYER
  2
ADD_LINE
 70
   64
 62
    7
  6
CONTINUOUS
  0
ENDTAB
  0
ENDSEC
  0
SECTION
  2
BLOCKS
  0
BLOCK
  2
-000-ATN-140
 70
   64
 10
0
 20
0
 30
0
  0
CIRCLE
  8
_a-1_一般図
  6
CONTINUOUS
 62
    7
 10
-0.0000000000001421
 20
59.842557547002862
 40
68.099999999999994
  0
LINE
  8
_a-1_一般図
  6
CONTINUOUS
 62
    7
 10
-16.065712826617244
 20
-12.767136158714564
 11
-16.699999999999932
 21
-12.767136158714564
  0
LINE
  8
_a-1_一般図
  6
CONTINUOUS
 62
    7
 10
16.0657128266173
 20
-12.767136158714571
 11
16.700000000000045
 21
-12.767136158714571
  0
ARC
  8
_a-1_一般図
  6
CONTINUOUS
 62
    7
 10
-15.584805756694266
 20
-12.945191711656904
 40
1.4218416325267724
 50
186.24039513560112
 51
11.274861586275563
  0
ARC
  8
_a-1_一般図
  6
CONTINUOUS
 62
    7
 10
-16.699999999999932
 20
-13.067136158714575
 40
0.3
 50
90
 51
186.24039513560106
  0
ARC
  8
_a-1_一般図
  6
CONTINUOUS
 62
    7
 10
-16.065712826617244
 20
-12.467136158714553
 40
0.3
 50
270
 51
11.27486158627562
  0
ARC
  8
_a-1_一般図
  6
CONTINUOUS
 62
    7
 10
15.584805756694351
 20
-12.945191711656911
 40
1.4218416325267724
 50
168.72513841372435
 51
353.75960486439885
  0
ARC
  8
_a-1_一般図
  6
CONTINUOUS
 62
    7
 10
16.700000000000045
 20
-13.067136158714582
 40
0.3
 50
353.75960486439891
 51
90
  0
ARC
  8
_a-1_一般図
  6
CONTINUOUS
 62
    7
 10
16.0657128266173
 20
-12.46713615871456
 40
0.3
 50
168.72513841372435
 51
270
  0
LINE
  8
_a-1_一般図
  6
CONTINUOUS
 62
    7
 10
15.771502666070518
 20
-12.408481393937642
 11
16.58199488696016
 21
-8.3430819786185353
  0
ARC
  8
_a-1_一般図
  6
CONTINUOUS
 62
    7
 10
16.876205047506943
 20
-8.4017367433954817
 40
0.3
 50
103.89007076237647
 51
168.72513841372324
  0
LINE
  8
_a-1_一般図
  6
CONTINUOUS
 62
    7
 10
14.926192515963209
 20
-8.9765152818811131
 11
14.190404906768379
 21
-12.667199089970515
  0
ARC
  8
_a-1_一般図
  6
CONTINUOUS
 62
    7
 10
14.631982355416426
 20
-8.9178605171041809
 40
0.3
 50
348.72513841372592
 51
102.0131573718584
  0
LINE
  8
_a-1_一般図
  6
CONTINUOUS
 62
    7
 10
-14.926192515963095
 20
-8.9765152818812197
 11
-14.190404906768293
 21
-12.667199089970511
  0
ARC
  8
_a-1_一般図
  6
CONTINUOUS
 62
    7
 10
-0.0000000000001421
 20
59.842557547002862
 40
70
 50
257.98684262814123
 51
282.01315737185911
  0
ARC
  8
_a-1_一般図
  6
CONTINUOUS
 62
    7
 10
-14.631982355416312
 20
-8.9178605171042733
 40
0.3
 50
77.986842628141062
 51
191.2748615862767
  0
LINE
  8
_a-1_一般図
  6
CONTINUOUS
 62
    7
 10
-15.771502666070432
 20
-12.408481393937635
 11
-16.581994886960075
 21
-8.3430819786185992
  0
ARC
  8
_a-1_一般図
  6
CONTINUOUS
 62
    7
 10
-0.0000000000001421
 20
59.842557547002862
 40
70
 50
283.89007076237743
 51
256.10992923762291
  0
ARC
  8
_a-1_一般図
  6
CONTINUOUS
 62
    7
 10
-16.876205047506858
 20
-8.4017367433955457
 40
0.3
 50
11.27486158627673
 51
76.109929237623518
  0
ENDBLK
  0
BLOCK
  2
-001-M-B-1
 70
   64
 10
0
 20
0
 30
0
  0
LINE
  8
_0-1_一般図
  6
CONTINUOUS
 62
    7
 10
-191.60609038681599
 20
-47.186692751679004
 11
-233.36715377532863
 21
-47.186692751679004
  0
ARC
  8
_0-1_一般図
  6
CONTINUOUS
 62
    7
 10
-233.36715377532863
 20
-46.986692751679016
 40
0.2
 50
180
 51
270
  0
LINE
  8
_0-1_一般図
  6
CONTINUOUS
 62
    7
 10
-233.56715377532862
 20
-46.986692751679016
 11
-233.56715377532862
 21
77.813307248320982
  0
ARC
  8
_0-1_一般図
  6
CONTINUOUS
 62
    7
 10
-233.36715377532863
 20
77.813307248320982
 40
0.2
 50
90
 51
180
  0
LINE
  8
_0-1_一般図
  6
CONTINUOUS
 62
    7
 10
-227.8671537753286
 20
78.013307248320984
 11
-233.36715377532863
 21
78.013307248320984
  0
ARC
  8
_0-1_一般図
  6
CONTINUOUS
 62
    7
 10
-227.8671537753286
 20
77.813307248320982
 40
0.2
 50
0
 51
90
  0
LINE
  8
_0-1_一般図
  6
CONTINUOUS
 62
    7
 10
-227.66715377532861
 20
-36.986692751679016
 11
-227.66715377532861
 21
77.813307248320982
  0
ARC
  8
_0-1_一般図
  6
CONTINUOUS
 62
    7
 10
-227.46715377532863
 20
-36.986692751679016
 40
0.2
 50
180
 51
270
  0
LINE
  8
_0-1_一般図
  6
CONTINUOUS
 62
    7
 10
-227.46715377532863
 20
-37.186692751679004
 11
-216.23562257295345
 21
-37.186692751679004
  0
ARC
  8
_0-1_一般図
  6
CONTINUOUS
 62
    7
 10
-216.23562257295345
 20
-37.85516154930383
 40
0.668468797624813
 50
308.69380892409748
 51
90
  0
ARC
  8
_0-1_一般図
  6
CONTINUOUS
 62
    7
 10
-213.56715377532862
 20
-41.186692751679004
 40
3.6000000000000001
 50
128.69380892409711
 51
51.306191075902746
  0
ARC
  8
_0-1_一般図
  6
CONTINUOUS
 62
    7
 10
-210.89868497770379
 20
-37.85516154930383
 40
0.6684687976248178
 50
90
 51
231.30619107590303
  0
LINE
  8
_0-1_一般図
  6
CONTINUOUS
 62
    7
 10
-170.23562257295345
 20
-37.186692751679004
 11
-210.89868497770379
 21
-37.186692751679004
  0
ARC
  8
_0-1_一般図
  6
CONTINUOUS
 62
    7
 10
-170.23562257295345
 20
-37.85516154930383
 40
0.6684687976248178
 50
308.69380892409691
 51
90
  0
ARC
  8
_0-1_一般図
  6
CONTINUOUS
 62
    7
 10
-167.56715377532862
 20
-41.186692751679004
 40
3.6000000000000001
 50
128.69380892409725
 51
51.306191075902859
  0
ARC
  8
_0-1_一般図
  6
CONTINUOUS
 62
    7
 10
-164.89868497770379
 20
-37.85516154930383
 40
0.668468797624813
 50
90
 51
231.30619107590252
  0
LINE
  8
_0-1_一般図
  6
CONTINUOUS
 62
    7
 10
-153.66715377532861
 20
-37.186692751679004
 11
-164.89868497770379
 21
-37.186692751679004
  0
ARC
  8
_0-1_一般図
  6
CONTINUOUS
 62
    7
 10
-153.66715377532861
 20
-36.986692751679016
 40
0.2
 50
270
 51
0
  0
LINE
  8
_0-1_一般図
  6
CONTINUOUS
 62
    7
 10
-153.46715377532863
 20
77.813307248320982
 11
-153.46715377532863
 21
-36.986692751679016
  0
ARC
  8
_0-1_一般図
  6
CONTINUOUS
 62
    7
 10
-153.26715377532861
 20
77.813307248320982
 40
0.2
 50
90
 51
180
  0
LINE
  8
_0-1_一般図
  6
CONTINUOUS
 62
    7
 10
-147.76715377532861
 20
78.013307248320984
 11
-153.26715377532861
 21
78.013307248320984
  0
ARC
  8
_0-1_一般図
  6
CONTINUOUS
 62
    7
 10
-147.76715377532861
 20
77.813307248320982
 40
0.2
 50
0
 51
90
  0
LINE
  8
_0-1_一般図
  6
CONTINUOUS
 62
    7
 10
-147.56715377532862
 20
77.813307248320982
 11
-147.56715377532862
 21
-46.986692751679016
  0
ARC
  8
_0-1_一般図
  6
CONTINUOUS
 62
    7
 10
-147.76715377532861
 20
-46.986692751679016
 40
0.2
 50
270
 51
0
  0
LINE
  8
_0-1_一般図
  6
CONTINUOUS
 62
    7
 10
-147.76715377532861
 20
-47.186692751679004
 11
-189.52762941773329
 21
-47.186692751679004
  0
ARC
  8
_0-1_一般図
  6
CONTINUOUS
 62
    7
 10
-189.52762941773329
 20
-46.586692751679109
 40
0.6
 50
209.99999999999568
 51
270
  0
ARC
  8
_0-1_一般図
  6
CONTINUOUS
 62
    7
 10
-190.56685990227464
 20
-47.186692751679018
 40
0.6
 50
29.999999999995691
 51
149.99999999999963
  0
ARC
  8
_0-1_一般図
  6
CONTINUOUS
 62
    7
 10
-191.60609038681599
 20
-46.586692751679109
 40
0.6
 50
270
 51
330.00000000000432
  0
LINE
  8
_0-1_一般図
  6
DASHED1
 62
    3
 10
-233.56715377532862
 20
39.813307248320996
 11
-227.66715377532861
 21
39.813307248320996
  0
LINE
  8
_0-1_一般図
  6
DASHED1
 62
    3
 10
-233.56715377532862
 20
15.813307248320996
 11
-227.66715377532861
 21
15.813307248320996
  0
LINE
  8
_0-1_一般図
  6
DASHED1
 62
    3
 10
-147.56715377532862
 20
39.813307248320996
 11
-153.46715377532863
 21
39.813307248320996
  0
LINE
  8
_0-1_一般図
  6
DASHED1
 62
    3
 10
-147.56715377532862
 20
15.813307248320996
 11
-153.46715377532863
 21
15.813307248320996
  0
LINE
  8
_0-1_一般図
  6
DASHED1
 62
    3
 10
-175.56715377532862
 20
-37.186692751679004
 11
-175.56715377532862
 21
-47.186692751679004
  0
LINE
  8
_0-1_一般図
  6
DASHED1
 62
    3
 10
-205.56715377532862
 20
-37.186692751679004
 11
-205.56715377532862
 21
-47.186692751679004
  0
ENDBLK
  0
BLOCK
  2
-002-M-A-1
 70
   64
 10
0
 20
0
 30
0
  0
LINE
  8
_0-9_
  6
CONTINUOUS
 62
    7
 10
32.620156254072327
 20
61.285692879514677
 11
33.800487815954995
 21
61.285692879514677
  0
ARC
  8
_0-9_
  6
CONTINUOUS
 62
    7
 10
33.800487815954995
 20
60.685692879514541
 40
0.6
 50
0
 51
90
  0
ARC
  8
_0-9_
  6
CONTINUOUS
 62
    7
 10
36.400011039561974
 20
70.285719827143751
 40
0.6
 50
0
 51
152.11909256481778
  0
ARC
  8
_0-9_
  6
CONTINUOUS
 62
    7
 10
32.620156254072441
 20
62.285692879514677
 40
1
 50
152.119092564818
 51
269.99999999999994
  0
LINE
  8
_0-9_
  6
CONTINUOUS
 62
    7
 10
35.869658134527668
 20
70.566301002780577
 11
31.736234745681969
 21
62.753328172242739
  0
ARC
  8
_0-9_
  6
CONTINUOUS
 62
    7
 10
-1.0395133180331584
 20
-38.715449052544379
 40
0.6
 50
29.999999999995691
 51
90
  0
ARC
  8
_0-9_
  6
CONTINUOUS
 62
    7
 10
-0.0002828334918092
 20
-38.11544905254447
 40
0.6
 50
209.99999999999568
 51
329.9999999999996
  0
ARC
  8
_0-9_
  6
CONTINUOUS
 62
    7
 10
1.0389476510495399
 20
-38.715449052544379
 40
0.6
 50
90
 51
150.00000000000432
  0
ARC
  8
_0-9_
  6
CONTINUOUS
 62
    7
 10
-4.0002532585417327
 20
-43.715451762599848
 40
0.6
 50
89.998329108938208
 51
120.94611808112874
  0
LINE
  8
_0-9_
  6
CONTINUOUS
 62
    7
 10
-5.6916994194618553
 20
-44.030026383614192
 11
-4.3087923101465719
 21
-43.200860999337571
  0
ARC
  8
_0-9_
  6
CONTINUOUS
 62
    7
 10
-6.0002384710666945
 20
-43.515435620351916
 40
0.6
 50
270.00167089106179
 51
300.94611808112876
  0
ARC
  8
_0-9_
  6
CONTINUOUS
 62
    7
 10
-4.0002182634811732
 20
-43.715451762599848
 40
0.6
 50
59.053881918871248
 51
90.001670891061792
  0
LINE
  8
_0-9_
  6
CONTINUOUS
 62
    7
 10
-2.3087721025610506
 20
-44.030026383614192
 11
-3.691679211876334
 21
-43.200860999337571
  0
ARC
  8
_0-9_
  6
CONTINUOUS
 62
    7
 10
-2.0002330509562114
 20
-43.515435620351916
 40
0.6
 50
239.05388191887124
 51
269.99832910893821
  0
ARC
  8
_0-9_
  6
CONTINUOUS
 62
    7
 10
-8.0002236835916563
 20
-43.715451762599848
 40
0.6
 50
89.998329108938208
 51
120.94611808112874
  0
LINE
  8
_0-9_
  6
CONTINUOUS
 62
    7
 10
-9.6916698445117788
 20
-44.030026383614192
 11
-8.3087627351964954
 21
-43.200860999337571
  0
ARC
  8
_0-9_
  6
CONTINUOUS
 62
    7
 10
-10.000208896116618
 20
-43.515435620351916
 40
0.6
 50
270.00167089106179
 51
300.94611808112876
  0
ARC
  8
_0-9_
  6
CONTINUOUS
 62
    7
 10
-8.0001886885310967
 20
-43.715451762599848
 40
0.6
 50
59.053881918871248
 51
90.001670891061792
  0
LINE
  8
_0-9_
  6
CONTINUOUS
 62
    7
 10
-6.3087425276109741
 20
-44.030026383614192
 11
-7.6916496369262575
 21
-43.200860999337571
  0
ARC
  8
_0-9_
  6
CONTINUOUS
 62
    7
 10
-6.0002034760061349
 20
-43.515435620351916
 40
0.6
 50
239.05388191887124
 51
269.99832910893821
  0
ARC
  8
_0-9_
  6
CONTINUOUS
 62
    7
 10
-12.00019410864158
 20
-43.715451762599848
 40
0.6
 50
89.998329108938208
 51
120.94611808112874
  0
LINE
  8
_0-9_
  6
CONTINUOUS
 62
    7
 10
-13.691640269561702
 20
-44.030026383614192
 11
-12.308733160246419
 21
-43.200860999337571
  0
ARC
  8
_0-9_
  6
CONTINUOUS
 62
    7
 10
-12.00015911358102
 20
-43.715451762599848
 40
0.6
 50
59.053881918871248
 51
90.001670891061792
  0
LINE
  8
_0-9_
  6
CONTINUOUS
 62
    7
 10
-10.308712952660898
 20
-44.030026383614192
 11
-11.691620061976181
 21
-43.200860999337571
  0
ARC
  8
_0-9_
  6
CONTINUOUS
 62
    7
 10
-10.000173901056058
 20
-43.515435620351916
 40
0.6
 50
239.05388191887124
 51
269.99832910893821
  0
ARC
  8
_0-9_
  6
CONTINUOUS
 62
    7
 10
-0.0002478384312496
 20
-43.715451762599848
 40
0.6
 50
59.053881918871248
 51
90.001670891061792
  0
LINE
  8
_0-9_
  6
CONTINUOUS
 62
    7
 10
1.6911983224888729
 20
-44.030026383614192
 11
0.3082912131735895
 21
-43.200860999337571
  0
ARC
  8
_0-9_
  6
CONTINUOUS
 62
    7
 10
-0.0002828334918092
 20
-43.715451762599848
 40
0.6
 50
89.998329108938208
 51
120.94611808112874
  0
LINE
  8
_0-9_
  6
CONTINUOUS
 62
    7
 10
-1.6917289944119318
 20
-44.030026383614192
 11
-0.3088218850966484
 21
-43.200860999337571
  0
ARC
  8
_0-9_
  6
CONTINUOUS
 62
    7
 10
-2.000268046016771
 20
-43.515435620351916
 40
0.6
 50
270.00167089106179
 51
300.94611808112876
  0
ARC
  8
_0-9_
  6
CONTINUOUS
 62
    7
 10
-14.000208896116618
 20
-43.515435620351916
 40
0.6
 50
270.00167089106179
 51
300.94611808112876
  0
ARC
  8
_0-9_
  6
CONTINUOUS
 62
    7
 10
-16.00019410864158
 20
-43.715451762599848
 40
0.6
 50
89.998329108938208
 51
120.94611808112874
  0
LINE
  8
_0-9_
  6
CONTINUOUS
 62
    7
 10
-17.691640269561702
 20
-44.030026383614192
 11
-16.308733160246419
 21
-43.200860999337571
  0
ARC
  8
_0-9_
  6
CONTINUOUS
 62
    7
 10
-16.00015911358102
 20
-43.715451762599848
 40
0.6
 50
59.053881918871248
 51
90.001670891061792
  0
LINE
  8
_0-9_
  6
CONTINUOUS
 62
    7
 10
-14.308712952660898
 20
-44.030026383614192
 11
-15.691620061976181
 21
-43.200860999337571
  0
ARC
  8
_0-9_
  6
CONTINUOUS
 62
    7
 10
-14.000173901056058
 20
-43.515435620351916
 40
0.6
 50
239.05388191887124
 51
269.99832910893821
  0
ARC
  8
_0-9_
  6
CONTINUOUS
 62
    7
 10
-18.000208896116618
 20
-43.515435620351916
 40
0.6
 50
270.00167089106179
 51
300.94611808112876
  0
ARC
  8
_0-9_
  6
CONTINUOUS
 62
    7
 10
-20.00019410864158
 20
-43.715451762599848
 40
0.6
 50
89.998329108938208
 51
120.94611808112874
  0
ARC
  8
_0-9_
  6
CONTINUOUS
 62
    7
 10
-20.00015911358102
 20
-43.715451762599848
 40
0.6
 50
59.053881918871248
 51
90.001670891061792
  0
LINE
  8
_0-9_
  6
CONTINUOUS
 62
    7
 10
-18.308712952660898
 20
-44.030026383614192
 11
-19.691620061976181
 21
-43.200860999337571
  0
ARC
  8
_0-9_
  6
CONTINUOUS
 62
    7
 10
-18.000173901056058
 20
-43.515435620351916
 40
0.6
 50
239.05388191887124
 51
269.99832910893821
  0
LINE
  8
_0-9_
  6
CONTINUOUS
 62
    7
 10
-21.691640269561702
 20
-44.030026383614192
 11
-20.308733160246419
 21
-43.200860999337571
  0
ARC
  8
_0-9_
  6
CONTINUOUS
 62
    7
 10
4.0002753376669773
 20
-43.715451762599848
 40
0.6
 50
59.053881918871248
 51
90.001670891061792
  0
LINE
  8
_0-9_
  6
CONTINUOUS
 62
    7
 10
5.6917214985870999
 20
-44.030026383614192
 11
4.3088143892718165
 21
-43.200860999337571
  0
ARC
  8
_0-9_
  6
CONTINUOUS
 62
    7
 10
6.000260550191939
 20
-43.515435620351916
 40
0.6
 50
239.05388191887124
 51
269.99832910893821
  0
ARC
  8
_0-9_
  6
CONTINUOUS
 62
    7
 10
4.0002403426064177
 20
-43.715451762599848
 40
0.6
 50
89.998329108938208
 51
120.94611808112874
  0
LINE
  8
_0-9_
  6
CONTINUOUS
 62
    7
 10
2.3087941816862951
 20
-44.030026383614192
 11
3.6917012910015785
 21
-43.200860999337571
  0
ARC
  8
_0-9_
  6
CONTINUOUS
 62
    7
 10
2.0002551300814559
 20
-43.515435620351916
 40
0.6
 50
270.00167089106179
 51
300.94611808112876
  0
ARC
  8
_0-9_
  6
CONTINUOUS
 62
    7
 10
8.0002457627169008
 20
-43.715451762599848
 40
0.6
 50
59.053881918871248
 51
90.001670891061792
  0
LINE
  8
_0-9_
  6
CONTINUOUS
 62
    7
 10
9.6916919236370234
 20
-44.030026383614192
 11
8.30878481432174
 21
-43.200860999337571
  0
ARC
  8
_0-9_
  6
CONTINUOUS
 62
    7
 10
10.000230975241863
 20
-43.515435620351916
 40
0.6
 50
239.05388191887124
 51
269.99832910893821
  0
ARC
  8
_0-9_
  6
CONTINUOUS
 62
    7
 10
8.0002107676563412
 20
-43.715451762599848
 40
0.6
 50
89.998329108938208
 51
120.94611808112874
  0
LINE
  8
_0-9_
  6
CONTINUOUS
 62
    7
 10
6.3087646067362186
 20
-44.030026383614192
 11
7.691671716051502
 21
-43.200860999337571
  0
ARC
  8
_0-9_
  6
CONTINUOUS
 62
    7
 10
6.0002255551313795
 20
-43.515435620351916
 40
0.6
 50
270.00167089106179
 51
300.94611808112876
  0
ARC
  8
_0-9_
  6
CONTINUOUS
 62
    7
 10
12.000216187766824
 20
-43.715451762599848
 40
0.6
 50
59.053881918871248
 51
90.001670891061792
  0
LINE
  8
_0-9_
  6
CONTINUOUS
 62
    7
 10
13.691662348686947
 20
-44.030026383614192
 11
12.308755239371663
 21
-43.200860999337571
  0
ARC
  8
_0-9_
  6
CONTINUOUS
 62
    7
 10
12.000181192706265
 20
-43.715451762599848
 40
0.6
 50
89.998329108938208
 51
120.94611808112874
  0
LINE
  8
_0-9_
  6
CONTINUOUS
 62
    7
 10
10.308735031786142
 20
-44.030026383614192
 11
11.691642141101426
 21
-43.200860999337571
  0
ARC
  8
_0-9_
  6
CONTINUOUS
 62
    7
 10
10.000195980181303
 20
-43.515435620351916
 40
0.6
 50
270.00167089106179
 51
300.94611808112876
  0
ARC
  8
_0-9_
  6
CONTINUOUS
 62
    7
 10
2.0002901251420155
 20
-43.515435620351916
 40
0.6
 50
239.0538819188713
 51
269.99832910893826
  0
ARC
  8
_0-9_
  6
CONTINUOUS
 62
    7
 10
14.000230975241863
 20
-43.515435620351916
 40
0.6
 50
239.05388191887124
 51
269.99832910893821
  0
ARC
  8
_0-9_
  6
CONTINUOUS
 62
    7
 10
16.000216187766824
 20
-43.715451762599848
 40
0.6
 50
59.053881918871248
 51
90.001670891061792
  0
LINE
  8
_0-9_
  6
CONTINUOUS
 62
    7
 10
17.691662348686947
 20
-44.030026383614192
 11
16.308755239371663
 21
-43.200860999337571
  0
ARC
  8
_0-9_
  6
CONTINUOUS
 62
    7
 10
16.000181192706265
 20
-43.715451762599848
 40
0.6
 50
89.998329108938208
 51
120.94611808112874
  0
LINE
  8
_0-9_
  6
CONTINUOUS
 62
    7
 10
14.308735031786142
 20
-44.030026383614192
 11
15.691642141101426
 21
-43.200860999337571
  0
ARC
  8
_0-9_
  6
CONTINUOUS
 62
    7
 10
14.000195980181303
 20
-43.515435620351916
 40
0.6
 50
270.00167089106179
 51
300.94611808112876
  0
ARC
  8
_0-9_
  6
CONTINUOUS
 62
    7
 10
18.000230975241863
 20
-43.515435620351916
 40
0.6
 50
239.05388191887124
 51
269.99832910893821
  0
ARC
  8
_0-9_
  6
CONTINUOUS
 62
    7
 10
20.000216187766824
 20
-43.715451762599848
 40
0.6
 50
59.053881918871248
 51
90.001670891061792
  0
ARC
  8
_0-9_
  6
CONTINUOUS
 62
    7
 10
20.000181192706265
 20
-43.715451762599848
 40
0.6
 50
89.998329108938208
 51
120.94611808112874
  0
LINE
  8
_0-9_
  6
CONTINUOUS
 62
    7
 10
18.308735031786142
 20
-44.030026383614192
 11
19.691642141101426
 21
-43.200860999337571
  0
ARC
  8
_0-9_
  6
CONTINUOUS
 62
    7
 10
18.000195980181303
 20
-43.515435620351916
 40
0.6
 50
270.00167089106179
 51
300.94611808112876
  0
LINE
  8
_0-9_
  6
CONTINUOUS
 62
    7
 10
21.691662348686947
 20
-44.030026383614192
 11
20.308755239371663
 21
-43.200860999337571
  0
ARC
  8
_0-9_
  6
CONTINUOUS
 62
    7
 10
-22.000179321166428
 20
-43.515435620351916
 40
0.6
 50
270
 51
300.94611808111915
  0
ARC
  8
_0-9_
  6
CONTINUOUS
 62
    7
 10
22.000201400291672
 20
-43.515435620351916
 40
0.6
 50
239.05388191888088
 51
270
  0
ARC
  8
_0-9_
  6
CONTINUOUS
 62
    7
 10
29.000011039561656
 20
49.884564379648118
 40
3.5999999999999996
 50
220.36124942452395
 51
270
  0
ARC
  8
_0-9_
  6
CONTINUOUS
 62
    7
 10
25.540366783292512
 20
46.944208635917512
 40
0.9403557437305937
 50
40.36124942452399
 51
180
  0
ARC
  8
_0-9_
  6
CONTINUOUS
 62
    7
 10
25.540366783292512
 20
52.824920123378725
 40
0.9403557437305926
 50
180
 51
319.63875057547608
  0
ARC
  8
_0-9_
  6
CONTINUOUS
 62
    7
 10
29.000011039561656
 20
49.884564379648118
 40
3.5999999999999996
 50
270
 51
293.00816749291675
  0
ARC
  8
_0-9_
  6
CONTINUOUS
 62
    7
 10
30.641632876621912
 20
46.01867796847575
 40
0.6
 50
55.581294388391505
 51
113.00816749291664
  0
ARC
  8
_0-9_
  6
CONTINUOUS
 62
    7
 10
31.546011039561932
 20
47.338564379648069
 40
1
 50
235.58129438839171
 51
34.418705611610676
  0
ARC
  8
_0-9_
  6
CONTINUOUS
 62
    7
 10
29.000011039561656
 20
49.884564379648118
 40
3.5999999999999996
 50
336.99183250708592
 51
12.266250610351529
  0
ARC
  8
_0-9_
  6
CONTINUOUS
 62
    7
 10
32.865897450734138
 20
48.242942542588146
 40
0.6
 50
156.99183250708617
 51
214.41870561161059
  0
ARC
  8
_0-9_
  6
CONTINUOUS
 62
    7
 10
29.000011039561656
 20
49.884564379648118
 40
3.5999999999999996
 50
12.266250610351568
 51
23.008167492914065
  0
ARC
  8
_0-9_
  6
CONTINUOUS
 62
    7
 10
32.865897450734138
 20
51.526186216708147
 40
0.6
 50
145.58129438838952
 51
203.00816749291386
  0
ARC
  8
_0-9_
  6
CONTINUOUS
 62
    7
 10
31.546011039561819
 20
52.430564379648168
 40
1
 50
325.58129438838944
 51
124.41870561160842
  0
ARC
  8
_0-9_
  6
CONTINUOUS
 62
    7
 10
29.000011039561656
 20
49.884564379648118
 40
3.5999999999999996
 50
66.991832507083458
 51
139.63875057547608
  0
ARC
  8
_0-9_
  6
CONTINUOUS
 62
    7
 10
30.641632876621912
 20
53.750450790820487
 40
0.6
 50
246.99183250708344
 51
304.41870561160863
  0
ARC
  8
_0-9_
  6
CONTINUOUS
 62
    7
 10
25.200011039561929
 20
44.916938652208337
 40
0.6
 50
180
 51
232.90239819868242
  0
LINE
  8
_0-9_
  6
CONTINUOUS
 62
    7
 10
24.600011039561906
 20
47.001520719038247
 11
24.600011039561906
 21
44.916938652208337
  0
LINE
  8
_0-9_
  6
CONTINUOUS
 62
    7
 10
37.000011039561883
 20
-43.515435620351916
 11
37.000011039562338
 21
70.285719827143751
  0
ARC
  8
_0-9_
  6
CONTINUOUS
 62
    7
 10
-36.399988960436616
 20
-43.515435620351916
 40
0.6
 50
180
 51
270
  0
ARC
  8
_0-9_
  6
CONTINUOUS
 62
    7
 10
36.400011039561861
 20
-43.515435620351916
 40
0.6
 50
270
 51
0
  0
LINE
  8
_0-9_
  6
CONTINUOUS
 62
    7
 10
-32.620134174947083
 20
61.285692879514677
 11
-33.80046573682975
 21
61.285692879514677
  0
ARC
  8
_0-9_
  6
CONTINUOUS
 62
    7
 10
-33.80046573682975
 20
60.685692879514541
 40
0.6
 50
90
 51
180
  0
ARC
  8
_0-9_
  6
CONTINUOUS
 62
    7
 10
-32.620134174947083
 20
62.285692879514677
 40
1
 50
270.00000000000006
 51
27.880907435181985
  0
LINE
  8
_0-9_
  6
CONTINUOUS
 62
    7
 10
-35.869636055402424
 20
70.566301002780577
 11
-31.736212666556725
 21
62.753328172242739
  0
ARC
  8
_0-9_
  6
CONTINUOUS
 62
    7
 10
-28.999988960436525
 20
49.884564379648118
 40
3.5999999999999996
 50
270
 51
319.63875057547608
  0
ARC
  8
_0-9_
  6
CONTINUOUS
 62
    7
 10
-25.540344704167268
 20
46.944208635917512
 40
0.9403557437305936
 50
0
 51
139.63875057547602
  0
ARC
  8
_0-9_
  6
CONTINUOUS
 62
    7
 10
-25.540344704167268
 20
52.824920123378725
 40
0.9403557437305926
 50
220.36124942452392
 51
0
  0
ARC
  8
_0-9_
  6
CONTINUOUS
 62
    7
 10
-28.999988960436525
 20
49.884564379648118
 40
3.5999999999999996
 50
246.99183250708325
 51
270
  0
ARC
  8
_0-9_
  6
CONTINUOUS
 62
    7
 10
-30.641610797496668
 20
46.01867796847575
 40
0.6
 50
66.991832507083359
 51
124.41870561160849
  0
ARC
  8
_0-9_
  6
CONTINUOUS
 62
    7
 10
-31.545988960436574
 20
47.338564379648069
 40
1
 50
145.58129438838932
 51
304.41870561160829
  0
ARC
  8
_0-9_
  6
CONTINUOUS
 62
    7
 10
-28.999988960436525
 20
49.884564379648118
 40
3.5999999999999996
 50
167.73374938964847
 51
203.00816749291405
  0
ARC
  8
_0-9_
  6
CONTINUOUS
 62
    7
 10
-32.865875371608894
 20
48.242942542588146
 40
0.6
 50
325.58129438838944
 51
23.00816749291382
  0
ARC
  8
_0-9_
  6
CONTINUOUS
 62
    7
 10
-28.999988960436525
 20
49.884564379648118
 40
3.5999999999999996
 50
156.99183250708595
 51
167.73374938964844
  0
ARC
  8
_0-9_
  6
CONTINUOUS
 62
    7
 10
-32.865875371608894
 20
51.526186216708147
 40
0.6
 50
336.99183250708614
 51
34.418705611610484
  0
ARC
  8
_0-9_
  6
CONTINUOUS
 62
    7
 10
-31.545988960436574
 20
52.430564379648168
 40
1
 50
55.581294388391591
 51
214.41870561161059
  0
ARC
  8
_0-9_
  6
CONTINUOUS
 62
    7
 10
-28.999988960436525
 20
49.884564379648118
 40
3.5999999999999996
 50
40.361249424523926
 51
113.00816749291656
  0
ARC
  8
_0-9_
  6
CONTINUOUS
 62
    7
 10
-30.641610797496668
 20
53.750450790820487
 40
0.6
 50
235.58129438839137
 51
293.00816749291653
  0
ARC
  8
_0-9_
  6
CONTINUOUS
 62
    7
 10
-25.199988960436684
 20
44.916938652208337
 40
0.6
 50
307.09760180131758
 51
0.0000000000000063
  0
LINE
  8
_0-9_
  6
CONTINUOUS
 62
    7
 10
-24.599988960436662
 20
47.001520719038247
 11
-24.599988960436662
 21
44.916938652208337
  0
ARC
  8
_0-9_
  6
CONTINUOUS
 62
    7
 10
-36.39998896043673
 20
70.285719827143751
 40
0.6
 50
27.88090743518222
 51
180
  0
LINE
  8
_0-9_
  6
CONTINUOUS
 62
    7
 10
-36.999988960437094
 20
70.285719827143751
 11
-36.999988960436525
 21
-43.515435620351916
  0
ARC
  8
_0-9_
  6
CONTINUOUS
 62
    7
 10
-24.00019410864158
 20
-43.715451762599848
 40
0.6
 50
89.998329108938208
 51
120.94611808112874
  0
ARC
  8
_0-9_
  6
CONTINUOUS
 62
    7
 10
-24.00015911358102
 20
-43.715451762599848
 40
0.6
 50
59.053881918871248
 51
90.001670891061792
  0
LINE
  8
_0-9_
  6
CONTINUOUS
 62
    7
 10
-22.308712952660898
 20
-44.030026383614192
 11
-23.691620061976181
 21
-43.200860999337571
  0
ARC
  8
_0-9_
  6
CONTINUOUS
 62
    7
 10
-22.000173901056058
 20
-43.515435620351916
 40
0.6
 50
239.05388191887124
 51
269.99832910893821
  0
LINE
  8
_0-9_
  6
CONTINUOUS
 62
    7
 10
-25.691640269561702
 20
-44.030026383614192
 11
-24.308733160246419
 21
-43.200860999337571
  0
ARC
  8
_0-9_
  6
CONTINUOUS
 62
    7
 10
-26.000179321166428
 20
-43.515435620351916
 40
0.6
 50
270
 51
300.94611808111915
  0
ARC
  8
_0-9_
  6
CONTINUOUS
 62
    7
 10
-28.00019410864158
 20
-43.715451762599848
 40
0.6
 50
89.998329108938208
 51
120.94611808112874
  0
ARC
  8
_0-9_
  6
CONTINUOUS
 62
    7
 10
-28.00015911358102
 20
-43.715451762599848
 40
0.6
 50
59.053881918871248
 51
90.001670891061792
  0
LINE
  8
_0-9_
  6
CONTINUOUS
 62
    7
 10
-26.308712952660898
 20
-44.030026383614192
 11
-27.691620061976181
 21
-43.200860999337571
  0
ARC
  8
_0-9_
  6
CONTINUOUS
 62
    7
 10
-26.000173901056058
 20
-43.515435620351916
 40
0.6
 50
239.05388191887124
 51
269.99832910893821
  0
LINE
  8
_0-9_
  6
CONTINUOUS
 62
    7
 10
-29.691640269561702
 20
-44.030026383614192
 11
-28.308733160246419
 21
-43.200860999337571
  0
ARC
  8
_0-9_
  6
CONTINUOUS
 62
    7
 10
-30.000179321166428
 20
-43.515435620351916
 40
0.6
 50
270
 51
300.94611808111915
  0
LINE
  8
_0-9_
  6
CONTINUOUS
 62
    7
 10
-36.399988960436616
 20
-44.115435620351825
 11
-30.000179321166428
 21
-44.115435620351825
  0
ARC
  8
_0-9_
  6
CONTINUOUS
 62
    7
 10
24.000216187766824
 20
-43.715451762599848
 40
0.6
 50
59.053881918871248
 51
90.001670891061792
  0
ARC
  8
_0-9_
  6
CONTINUOUS
 62
    7
 10
24.000181192706265
 20
-43.715451762599848
 40
0.6
 50
89.998329108938208
 51
120.94611808112874
  0
LINE
  8
_0-9_
  6
CONTINUOUS
 62
    7
 10
22.308735031786142
 20
-44.030026383614192
 11
23.691642141101426
 21
-43.200860999337571
  0
ARC
  8
_0-9_
  6
CONTINUOUS
 62
    7
 10
22.000195980181303
 20
-43.515435620351916
 40
0.6
 50
270.00167089106179
 51
300.94611808112876
  0
LINE
  8
_0-9_
  6
CONTINUOUS
 62
    7
 10
25.691662348686947
 20
-44.030026383614192
 11
24.308755239371663
 21
-43.200860999337571
  0
ARC
  8
_0-9_
  6
CONTINUOUS
 62
    7
 10
26.000201400291672
 20
-43.515435620351916
 40
0.6
 50
239.05388191888088
 51
270
  0
ARC
  8
_0-9_
  6
CONTINUOUS
 62
    7
 10
28.000216187766824
 20
-43.715451762599848
 40
0.6
 50
59.053881918871248
 51
90.001670891061792
  0
ARC
  8
_0-9_
  6
CONTINUOUS
 62
    7
 10
28.000181192706265
 20
-43.715451762599848
 40
0.6
 50
89.998329108938208
 51
120.94611808112874
  0
LINE
  8
_0-9_
  6
CONTINUOUS
 62
    7
 10
26.308735031786142
 20
-44.030026383614192
 11
27.691642141101426
 21
-43.200860999337571
  0
ARC
  8
_0-9_
  6
CONTINUOUS
 62
    7
 10
26.000195980181303
 20
-43.515435620351916
 40
0.6
 50
270.00167089106179
 51
300.94611808112876
  0
LINE
  8
_0-9_
  6
CONTINUOUS
 62
    7
 10
29.691662348686947
 20
-44.030026383614192
 11
28.308755239371663
 21
-43.200860999337571
  0
ARC
  8
_0-9_
  6
CONTINUOUS
 62
    7
 10
30.000201400291672
 20
-43.515435620351916
 40
0.6
 50
239.05388191888088
 51
270
  0
LINE
  8
_0-9_
  6
CONTINUOUS
 62
    7
 10
36.400011039561861
 20
-44.115435620351825
 11
30.000201400291672
 21
-44.115435620351825
  0
LINE
  8
_0-9_
  6
CONTINUOUS
 62
    7
 10
-29.129954477267887
 20
57.685898508576493
 11
-33.80046573682975
 21
57.685898508576493
  0
ARC
  8
_0-1_一般図
  6
CONTINUOUS
 62
    7
 10
-29.129954477267887
 20
57.085898508576491
 40
0.6
 50
65.556045219583467
 51
90
  0
LINE
  8
_0-1_一般図
  6
CONTINUOUS
 62
    7
 10
-24.951707193855952
 20
55.845770432858053
 11
-28.881672710687155
 21
57.632118395054057
  0
LINE
  8
_0-9_
  6
CONTINUOUS
 62
    7
 10
-24.599988960436662
 20
55.299550546380488
 11
-24.599988960436662
 21
52.824920123378725
  0
ARC
  8
_0-1_一般図
  6
CONTINUOUS
 62
    7
 10
-25.199988960436656
 20
55.299550546380488
 40
0.6
 50
0
 51
65.556045219583439
  0
LINE
  8
_0-1_一般図
  6
CONTINUOUS
 62
    7
 10
24.951729272981112
 20
55.845770432857819
 11
28.881694789812315
 21
57.632118395053823
  0
ARC
  8
_0-1_一般図
  6
CONTINUOUS
 62
    7
 10
29.129976556393046
 20
57.085898508576257
 40
0.6
 50
90
 51
114.44395478041653
  0
LINE
  8
_0-9_
  6
CONTINUOUS
 62
    7
 10
29.129976556393046
 20
57.685898508576493
 11
33.800487815955108
 21
57.685898508576493
  0
ARC
  8
_0-1_一般図
  6
CONTINUOUS
 62
    7
 10
25.200011039561815
 20
55.299550546380253
 40
0.6
 50
114.44395478041656
 51
180
  0
LINE
  8
_0-9_
  6
CONTINUOUS
 62
    7
 10
24.600011039561906
 20
55.299550546380253
 11
24.600011039561906
 21
52.824920123378725
  0
ARC
  8
_0-9_
  6
CONTINUOUS
 62
    7
 10
-28.999988960436525
 20
49.941876462768853
 40
6.8999999999999995
 50
253.0141914221374
 51
307.0976018013173
  0
ARC
  8
_0-1_一般図
  6
CONTINUOUS
 62
    7
 10
-31.599988960436946
 20
41.430119887302304
 40
2
 50
73.014191422137742
 51
180.0000000000004
  0
ARC
  8
_0-9_
  6
CONTINUOUS
 62
    7
 10
29.000011039561656
 20
49.941876462768853
 40
6.8999999999999995
 50
232.9023981986827
 51
286.98580857786357
  0
ARC
  8
_0-1_一般図
  6
CONTINUOUS
 62
    7
 10
31.600011039562219
 20
41.430119887302361
 40
2
 50
359.9999999999996
 51
106.98580857786386
  0
LINE
  8
_0-9_
  6
CONTINUOUS
 62
    7
 10
-23.599988960436605
 20
-38.11544905254447
 11
-1.0395133180331584
 21
-38.11544905254447
  0
LINE
  8
_0-1_一般図
  6
CONTINUOUS
 62
    7
 10
-33.599988960436605
 20
-28.11544905254452
 11
-33.599988960436946
 21
41.43011988730229
  0
ARC
  8
_0-1_一般図
  6
CONTINUOUS
 62
    7
 10
-23.599988960436605
 20
-28.11544905254447
 40
10
 50
180.00000000000031
 51
270
  0
LINE
  8
_0-9_
  6
CONTINUOUS
 62
    7
 10
23.600011039561934
 20
-38.11544905254447
 11
1.0395353971584029
 21
-38.11544905254447
  0
LINE
  8
_0-1_一般図
  6
CONTINUOUS
 62
    7
 10
33.600011039561934
 20
-28.115449052544513
 11
33.600011039562219
 21
41.430119887302347
  0
ARC
  8
_0-1_一般図
  6
CONTINUOUS
 62
    7
 10
23.600011039561934
 20
-28.11544905254447
 40
10
 50
270
 51
359.99999999999977
  0
ARC
  8
_0-9_
  6
CONTINUOUS
 62
    7
 10
-33.80046573682975
 20
58.285898508576459
 40
0.6
 50
180
 51
270
  0
LINE
  8
_0-9_
  6
CONTINUOUS
 62
    7
 10
-34.400465736829887
 20
58.285898508576459
 11
-34.400465736829887
 21
60.685692879514541
  0
ARC
  8
_0-9_
  6
CONTINUOUS
 62
    7
 10
33.800487815955108
 20
58.285898508576459
 40
0.6
 50
270
 51
0
  0
LINE
  8
_0-9_
  6
CONTINUOUS
 62
    7
 10
34.400487815955017
 20
58.285898508576459
 11
34.400487815955017
 21
60.685692879514541
  0
LINE
  8
_0-1_一般図
  6
DASHED1
 62
    3
 10
20.000011039562594
 20
-38.11544905254447
 11
20.000011039562594
 21
-43.115451786726595
  0
LINE
  8
_0-1_一般図
  6
DASHED1
 62
    3
 10
-19.999988960437406
 20
-38.11544905254447
 11
-19.999988960437406
 21
-43.115451762854981
  0
LINE
  8
_0-1_一般図
  6
DASHED1
 62
    3
 10
-36.999988960436909
 20
33.884564379648168
 11
-33.59998896043691
 21
33.884564379648168
  0
LINE
  8
_0-1_一般図
  6
DASHED1
 62
    3
 10
-36.99998896043661
 20
-26.115435620351832
 11
-33.599988960436612
 21
-26.115435620351832
  0
LINE
  8
_0-1_一般図
  6
DASHED1
 62
    3
 10
37.000011039561954
 20
-26.115435620351832
 11
33.600011039561799
 21
-26.115435620351832
  0
LINE
  8
_0-1_一般図
  6
DASHED1
 62
    3
 10
37.000011039562196
 20
33.884564379648168
 11
33.600011039562098
 21
33.884564379648168
  0
ENDBLK
  0
BLOCK
  2
-003-SRB-M8x50
 70
   64
 10
0
 20
0
 30
0
  0
LINE
  8
_0-1_一般図
  6
DASHED1
 62
    5
 10
-62.065028611141429
 20
-7.2396972327845504
 11
-63.465028611143794
 21
-7.6148261021884025
  0
LINE
  8
_0-1_一般図
  6
DASHED1
 62
    5
 10
-62.065028611141884
 20
8.0100450284077453
 11
-63.465028611143794
 21
8.3851738978120522
  0
LINE
  8
_0-1_一般図
  6
DASHED1
 62
    3
 10
-63.465028611141975
 20
8.3851738978120522
 11
-63.465028611141975
 21
-7.6148261021879478
  0
LINE
  8
_0-1_一般図
  6
DASHED1
 62
    3
 10
-71.465028611142884
 20
-7.6148261021879478
 11
-62.065028611142338
 21
-7.6148261021879478
  0
LINE
  8
_0-1_一般図
  6
DASHED1
 62
    3
 10
-71.465028611142884
 20
8.3851738978120522
 11
-62.065028611142338
 21
8.3851738978120522
  0
LINE
  8
_0-1_一般図
  6
DASHED1
 62
    3
 10
5.1349713888574797
 20
-7.6148261021879478
 11
14.534971388857116
 21
-7.6148261021879478
  0
LINE
  8
_0-1_一般図
  6
DASHED1
 62
    3
 10
5.1349713888574797
 20
8.3851738978120522
 11
14.534971388857116
 21
8.3851738978120522
  0
LINE
  8
_0-1_一般図
  6
CONTINUOUS
 62
    7
 10
28.334971388857753
 20
-7.1203796016532976
 11
19.334971388857753
 21
-7.1203796016532976
  0
ARC
  8
_0-1_一般図
  6
CONTINUOUS
 62
    7
 10
15.251638055524268
 20
0.3851738978115975
 40
15.083333333333353
 50
330.15827583531564
 51
29.841724164684361
  0
LINE
  8
_0-1_一般図
  6
CONTINUOUS
 62
    7
 10
28.334971388857753
 20
7.8907273972769474
 11
19.334971388857753
 21
7.8907273972769474
  0
LINE
  8
_0-1_一般図
  6
CONTINUOUS
 62
    7
 10
28.334971388857753
 20
-7.1203796016532976
 11
19.334971388857753
 21
-7.1203796016532976
  0
ARC
  8
_0-1_一般図
  6
CONTINUOUS
 62
    7
 10
15.251638055524268
 20
0.3851738978115975
 40
15.083333333333353
 50
330.15827583531564
 51
29.841724164684361
  0
LINE
  8
_0-1_一般図
  6
CONTINUOUS
 62
    7
 10
28.334971388857753
 20
7.8907273972769474
 11
19.334971388857753
 21
7.8907273972769474
  0
LINE
  8
_0-1_一般図
  6
CONTINUOUS
 62
    7
 10
28.334971388857753
 20
-7.1203796016532976
 11
19.334971388857753
 21
-7.1203796016532976
  0
ARC
  8
_0-1_一般図
  6
CONTINUOUS
 62
    7
 10
15.251638055524268
 20
0.3851738978115975
 40
15.083333333333353
 50
330.15827583531564
 51
29.841724164684361
  0
LINE
  8
_0-1_一般図
  6
CONTINUOUS
 62
    7
 10
28.334971388857753
 20
7.8907273972769474
 11
19.334971388857753
 21
7.8907273972769474
  0
LINE
  8
_0-1_一般図
  6
CONTINUOUS
 62
    7
 10
28.334971388857753
 20
-7.1203796016532976
 11
19.334971388857753
 21
-7.1203796016532976
  0
ARC
  8
_0-1_一般図
  6
CONTINUOUS
 62
    7
 10
15.251638055524268
 20
0.3851738978115975
 40
15.083333333333353
 50
330.15827583531564
 51
29.841724164684361
  0
LINE
  8
_0-1_一般図
  6
CONTINUOUS
 62
    7
 10
28.334971388857753
 20
7.8907273972769474
 11
19.334971388857753
 21
7.8907273972769474
  0
LINE
  8
_0-1_一般図
  6
CONTINUOUS
 62
    7
 10
-58.799965101682687
 20
8.3851738978120522
 11
-58.799965101682687
 21
-7.6148261021879478
  0
ARC
  8
_0-1_一般図
  6
CONTINUOUS
 62
    7
 10
7.047148187304515
 20
11.643504147009622
 40
12.03611111111028
 50
341.83267392811695
 51
18.167326071882439
  0
ARC
  8
_0-1_一般図
  6
CONTINUOUS
 62
    7
 10
7.047148187304515
 20
-10.873156351385973
 40
12.03611111111028
 50
341.83267392811757
 51
18.167326071883032
  0
ARC
  8
_0-1_一般図
  6
CONTINUOUS
 62
    7
 10
-28.161185146027606
 20
0.3851738978115975
 40
47.244444444442678
 50
350.85889745137644
 51
9.1411025486235555
  0
LINE
  8
_0-1_一般図
  6
CONTINUOUS
 62
    7
 10
28.334971388857753
 20
-7.1203796016532976
 11
18.483259298414737
 21
-7.1203796016532976
  0
LINE
  8
_0-1_一般図
  6
CONTINUOUS
 62
    7
 10
28.334971388857753
 20
7.8907273972769474
 11
18.483259298414737
 21
7.8907273972769474
  0
LINE
  8
_0-1_一般図
  6
CONTINUOUS
 62
    7
 10
28.334971388857753
 20
-14.625933101118648
 11
18.483259298414737
 21
-14.625933101118648
  0
LINE
  8
_0-1_一般図
  6
CONTINUOUS
 62
    7
 10
17.334971388857753
 20
-16.614826102188403
 11
18.483259298414737
 21
-14.625933101118648
  0
LINE
  8
_0-1_一般図
  6
CONTINUOUS
 62
    7
 10
28.334971388857753
 20
15.396280896741843
 11
18.483259298414737
 21
15.396280896741843
  0
LINE
  8
_0-1_一般図
  6
CONTINUOUS
 62
    7
 10
17.334971388857753
 20
17.385173897811597
 11
18.483259298414737
 21
15.396280896741843
  0
LINE
  8
_0-1_一般図
  6
CONTINUOUS
 62
    7
 10
-62.065028611142338
 20
-7.6148261021879478
 11
5.1349713888574797
 21
-7.6148261021879478
  0
LINE
  8
_0-1_一般図
  6
CONTINUOUS
 62
    7
 10
-62.065028611142338
 20
8.3851738978120522
 11
5.1349713888574797
 21
8.3851738978120522
  0
LINE
  8
_0-1_一般図
  6
CONTINUOUS
 62
    7
 10
30.334971388857753
 20
13.396280896742297
 11
30.334971388857753
 21
-12.625933101118648
  0
ARC
  8
_0-1_一般図
  6
CONTINUOUS
 62
    7
 10
31.334971388858207
 20
-12.104822098984954
 40
1
 50
92.292442775956204
 51
180
  0
ARC
  8
_0-1_一般図
  6
CONTINUOUS
 62
    7
 10
30.834971388857753
 20
0.3851738978115975
 40
11.5
 50
272.29244277595592
 51
92.491906368979969
  0
ARC
  8
_0-1_一般図
  6
CONTINUOUS
 62
    7
 10
31.334971388858207
 20
12.875169894608604
 40
1
 50
180
 51
267.7075572240438
  0
ARC
  8
_0-1_一般図
  6
CONTINUOUS
 62
    7
 10
25.814138055524268
 20
11.643504147009622
 40
4.5208333333333046
 50
303.89023816900772
 51
33.890238169010438
  0
LINE
  8
_0-1_一般図
  6
CONTINUOUS
 62
    7
 10
28.334971388857753
 20
15.396280896741843
 11
30.334971388857753
 21
13.396280896742297
  0
ARC
  8
_0-1_一般図
  6
CONTINUOUS
 62
    7
 10
25.814138055524268
 20
-10.873156351385973
 40
4.5208333333333046
 50
326.10976183098956
 51
56.109761830992277
  0
LINE
  8
_0-1_一般図
  6
CONTINUOUS
 62
    7
 10
28.334971388857753
 20
-14.625933101118648
 11
30.334971388857753
 21
-12.625933101118648
  0
ARC
  8
_0-1_一般図
  6
CONTINUOUS
 62
    7
 10
15.251638055524268
 20
0.3851738978115975
 40
15.083333333333353
 50
330.15827583531564
 51
29.841724164684361
  0
LINE
  8
_0-1_一般図
  6
CONTINUOUS
 62
    7
 10
17.334971388857753
 20
17.385173897811597
 11
14.534971388858025
 21
17.385173897811597
  0
LINE
  8
_0-1_一般図
  6
CONTINUOUS
 62
    7
 10
17.334971388857753
 20
-16.614826102188403
 11
14.534971388858025
 21
-16.614826102188403
  0
LINE
  8
_0-1_一般図
  6
CONTINUOUS
 62
    7
 10
17.334971388857753
 20
17.385173897811597
 11
17.334971388857753
 21
-16.614826102188403
  0
LINE
  8
_0-1_一般図
  6
CONTINUOUS
 62
    7
 10
28.334971388857753
 20
7.8907273972769474
 11
19.334971388857753
 21
7.8907273972769474
  0
ARC
  8
_0-1_一般図
  6
CONTINUOUS
 62
    7
 10
15.251638055524268
 20
0.3851738978115975
 40
15.083333333333353
 50
330.15827583531564
 51
29.841724164684361
  0
LINE
  8
_0-1_一般図
  6
CONTINUOUS
 62
    7
 10
28.334971388857753
 20
-7.1203796016532976
 11
19.334971388857753
 21
-7.1203796016532976
  0
LINE
  8
_0-1_一般図
  6
CONTINUOUS
 62
    2
 10
-58.799965101682687
 20
7.1351738978120522
 11
-62.065028611141884
 21
8.0100450284077453
  0
LINE
  8
_0-1_一般図
  6
CONTINUOUS
 62
    2
 10
-58.799965101682687
 20
7.1351738978120522
 11
5.1349713888574797
 21
7.1351738978120522
  0
LINE
  8
_0-1_一般図
  6
CONTINUOUS
 62
    2
 10
-58.799965101682687
 20
-6.3648261021884025
 11
-62.065028611141429
 21
-7.2396972327845504
  0
LINE
  8
_0-1_一般図
  6
CONTINUOUS
 62
    2
 10
-58.799965101682687
 20
-6.3648261021879478
 11
5.1349713888574797
 21
-6.3648261021879478
  0
LINE
  8
_0-1_一般図
  6
DASHED1
 62
    5
 10
5.1349713888575934
 20
7.1351738978120522
 11
14.534971388857116
 21
7.1351738978120522
  0
LINE
  8
_0-1_一般図
  6
DASHED1
 62
    5
 10
5.1349713888575366
 20
-6.3648261021879478
 11
14.534971388857116
 21
-6.3648261021879478
  0
ARC
  8
_0-1_一般図
  6
CONTINUOUS
 62
    7
 10
-72.065028611141969
 20
-17.014826102188394
 40
0.6
 50
222.69157329817966
 51
0
  0
LINE
  8
_0-1_一般図
  6
CONTINUOUS
 62
    7
 10
-71.465028611141975
 20
17.785173897811589
 11
-71.465028611141975
 21
-17.014826102188394
  0
ARC
  8
_0-1_一般図
  6
CONTINUOUS
 62
    7
 10
-72.065028611141969
 20
17.785173897811589
 40
0.6
 50
0
 51
137.30842670182034
  0
ARC
  8
_0-1_一般図
  6
CONTINUOUS
 62
    7
 10
-53.203263905259668
 20
0.3851738978115975
 40
26.261764705882307
 50
137.30842670182039
 51
222.69157329817955
  0
ENDBLK
  0
ENDSEC
  0
SECTION
  2
ENTITIES
  0
LINE
  8
ADD_LINE
  6
DOT
 62
    9
 10
538.67385039458418
 20
50
 11
538.67385039458418
 21
25
  0
LINE
  8
ADD_LINE
  6
DOT
 62
    9
 10
578.67385039458418
 20
50
 11
578.67385039458418
 21
25
  0
LINE
  8
ADD_LINE
  6
DOT
 62
    9
 10
820.51077559187615
 20
50
 11
820.51077559187615
 21
25
  0
LINE
  8
ADD_LINE
  6
DOT
 62
    9
 10
60.54106559187619
 20
50
 11
60.54106559187619
 21
25
  0
TEXT
  8
_f-a_
 62
    7
 10
289.60745799323013
 20
50
 40
6
 41
0.8333333333333333
 50
0
  1
名　　称
  0
TEXT
  8
_f-a_
 62
    7
 10
548.67385039458418
 20
50
 40
6
 41
0.8333333333333333
 50
0
  1
縮　　尺
  0
TEXT
  8
_f-a_
 62
    7
 10
689.59231299323017
 20
50
 40
6
 41
0.8333333333333333
 50
0
  1
品　　番
  0
LINE
  8
ADD_LINE
  6
DOT
 62
    9
 10
60.54106559187619
 20
50
 11
820.51077559187615
 21
50
  0
LINE
  8
ADD_LINE
  6
DOT
 62
    9
 10
60.54106559187619
 20
25
 11
820.51077559187615
 21
25
  0
TEXT
  8
_0-a_
 62
    3
 10
552.17385039458418
 20
32.5
 40
10
 41
0.8
 50
0
  1
1/2
  0
LINE
  8
_0-1_一般図
  6
CENTER1
 62
    4
 10
63.490143066477117
 20
320
 11
218.04148631842591
 21
320
  0
LINE
  8
_0-9_
  6
CONTINUOUS
 62
    4
 10
71.125653993480057
 20
224
 11
71.125653993480057
 21
318
  0
LINE
  8
_0-9_
  6
CONTINUOUS
 62
    4
 10
211.12565399348006
 20
224
 11
211.12565399348006
 21
318
  0
POINT
  8
_0-9_
 62
    4
 10
82.149323995759801
 20
285.94999999999999
  0
POINT
  8
_0-9_
 62
    4
 10
200.10198399120031
 20
354.04999999999995
  0
POINT
  8
_0-9_
 62
    4
 10
200.10198399120031
 20
354.04999999999995
  0
POINT
  8
_0-9_
 62
    4
 10
201.7474338563386
 20
355.00000092257562
  0
LINE
  8
_0-9_
  6
CONTINUOUS
 62
    4
 10
200.7474338563386
 20
356.73205173014446
 11
200.74743438898787
 21
356.7320508075689
  0
LINE
  8
_0-9_
  6
CONTINUOUS
 62
    4
 10
200.10198399120031
 20
354.04999999999995
 11
201.7474338563386
 21
355.00000092257562
  0
TEXT
  8
_0-9_
 62
    3
 10
204.75447707504281
 20
357.89081867273859
 40
10
 41
0.8
 50
30.000000000000099
  1
1.9
  0
LINE
  8
_0-9_
  6
CONTINUOUS
 62
    4
 10
82.149323995759801
 20
285.94999999999999
 11
200.10198399120031
 21
354.04999999999995
  0
TEXT
  8
_0-9_
 62
    3
 10
127.20226023482127
 20
313.11602540378442
 40
10
 41
0.8
 50
30.000000000000018
  1
φ136.2
  0
POINT
  8
_0-9_
 62
    4
 10
71.125653993480057
 20
226
  0
POINT
  8
_0-9_
 62
    4
 10
211.12565399348006
 20
226
  0
LINE
  8
_0-9_
  6
CONTINUOUS
 62
    4
 10
71.125653993480057
 20
226
 11
211.12565399348006
 21
226
  0
TEXT
  8
_0-9_
 62
    3
 10
130.12565399348006
 20
227
 40
10
 41
0.8
 50
0
  1
φ140
  0
LINE
  8
_0-1_一般図
  6
CENTER1
 62
    4
 10
284.84553590553799
 20
320
 11
775.78955961789734
 21
320
  0
LINE
  8
_0-1_一般図
  6
CONTINUOUS
 62
    7
 10
293.87434600652028
 20
250
 11
488.18667685586007
 21
250
  0
INSERT
  2
-000-ATN-140
  8
_0-1_一般図
 10
141.12565399347989
 20
379.8425575470028
 41
1
 42
1
 50
180
  0
POINT
  8
_0-9_
 62
    4
 10
235.12565399348
 20
249.99999999999997
  0
LINE
  8
_0-9_
  6
CONTINUOUS
 62
    4
 10
237.12565399348
 20
249.99999999999997
 11
143.12565399348006
 21
249.99999999999997
  0
ARC
  8
_0-1_一般図
  6
CONTINUOUS
 62
    7
 10
769.12851795266465
 20
377.79999999999995
 40
10
 50
81.469234390051867
 51
90
  0
LINE
  8
_0-1_一般図
  6
CONTINUOUS
 62
    7
 10
769.12851795266454
 20
387.79999999999995
 11
703.87434600652023
 21
387.79999999999995
  0
ARC
  8
_0-1_一般図
  6
CONTINUOUS
 62
    7
 10
769.12851795266454
 20
262.19999999999999
 40
10
 50
270
 51
278.53076560994816
  0
LINE
  8
_0-1_一般図
  6
CONTINUOUS
 62
    7
 10
769.12851795266454
 20
252.20000000000002
 11
703.87434600652023
 21
252.19999999999999
  0
LINE
  8
_0-1_一般図
  6
CONTINUOUS
 62
    7
 10
770.61192248196699
 20
387.68936352868292
 11
774.87434600652023
 21
387.04999999999995
  0
LINE
  8
_0-1_一般図
  6
CONTINUOUS
 62
    7
 10
774.87434600652023
 20
387.04999999999995
 11
774.87434600652023
 21
252.95000000000005
  0
LINE
  8
_0-1_一般図
  6
CONTINUOUS
 62
    7
 10
770.61192248196699
 20
252.31063647131703
 11
774.87434600652023
 21
252.95000000000005
  0
LINE
  8
_0-1_一般図
  6
CONTINUOUS
 62
    5
 10
703.87434600652023
 20
383.55515843252601
 11
703.87434600652023
 21
255.4704531076072
  0
LINE
  8
_0-1_一般図
  6
CONTINUOUS
 62
    5
 10
769.87434600652023
 20
383.55515843252601
 11
769.87434600652023
 21
255.4704531076072
  0
ARC
  8
_0-1_一般図
  6
CONTINUOUS
 62
    7
 10
697.61655086765541
 20
379.99999999999994
 40
10
 50
51.260575402144319
 51
90
  0
ARC
  8
_0-1_一般図
  6
CONTINUOUS
 62
    7
 10
697.61655086765541
 20
259.99999999999994
 40
10
 50
270
 51
308.7394245978557
  0
LINE
  8
_0-1_一般図
  6
CONTINUOUS
 62
    7
 10
509.27527608148876
 20
250
 11
697.61655086765541
 21
250
  0
LINE
  8
_0-1_一般図
  6
CONTINUOUS
 62
    7
 10
694.87434600652023
 20
390
 11
697.61655086765541
 21
390
  0
POINT
  8
_0-9_
 62
    4
 10
293.87434600652028
 20
226
  0
POINT
  8
_0-9_
 62
    4
 10
703.87434600652023
 20
226
  0
LINE
  8
_0-9_
  6
CONTINUOUS
 62
    4
 10
293.87434600652028
 20
224
 11
293.87434600652028
 21
248
  0
LINE
  8
_0-9_
  6
CONTINUOUS
 62
    4
 10
703.87434600652023
 20
224
 11
703.87434600652023
 21
250.19999999999999
  0
POINT
  8
_0-9_
 62
    4
 10
774.87434600652023
 20
226
  0
LINE
  8
_0-9_
  6
CONTINUOUS
 62
    4
 10
774.87434600652023
 20
224
 11
774.87434600652023
 21
250.95000000000005
  0
LINE
  8
_0-9_
  6
CONTINUOUS
 62
    4
 10
703.87434600652023
 20
226
 11
774.87434600652023
 21
226
  0
TEXT
  8
_0-9_
 62
    3
 10
735.12434600652023
 20
227
 40
10
 41
0.8
 50
0
  1
71
  0
POINT
  8
_0-9_
 62
    4
 10
235.12565399348
 20
390
  0
LINE
  8
_0-9_
  6
CONTINUOUS
 62
    4
 10
235.12565399348
 20
249.99999999999997
 11
235.12565399348
 21
390
  0
TEXT
  8
_0-9_
 62
    3
 10
234.12565399348
 20
313.5
 40
10
 41
0.8
 50
90
  1
140
  0
LINE
  8
_0-9_
  6
CONTINUOUS
 62
    4
 10
237.12565399348
 20
390
 11
143.12565399348006
 21
390
  0
INSERT
  2
-003-SRB-M8x50
  8
_0-1_一般図
 10
126.89313968790907
 20
413.0028449045567
 41
0.5
 42
0.5
 50
180
  0
INSERT
  2
-002-M-A-1
  8
_0-1_一般図
 10
141.12565951326133
 20
423.25254014547471
 41
0.5
 42
0.5
 50
180
  0
LINE
  8
_0-1_一般図
  6
CENTER1
 62
    4
 10
170.03013051741411
 20
412.81025795565063
 11
102.75133616238139
 21
412.81025795565063
  0
INSERT
  2
-001-M-B-1
  8
_0-1_一般図
 10
45.842077105815747
 20
426.71691157981115
 41
0.5
 42
0.5
 50
180
  0
LINE
  8
_0-1_一般図
  6
CENTER1
 62
    4
 10
141.12565399348006
 20
452.68041715944867
 11
141.12565399348006
 21
241.09808341650654
  0
POINT
  8
_0-9_
 62
    4
 10
235.12565399348
 20
390
  0
POINT
  8
_0-9_
 62
    4
 10
235.12565399348
 20
450.31025795565063
  0
LINE
  8
_0-9_
  6
CONTINUOUS
 62
    4
 10
237.12565399348
 20
450.31025795565063
 11
164.52565399348009
 21
450.31025795565063
  0
POINT
  8
_0-9_
 62
    4
 10
119.62565399348
 20
466.31025795565063
  0
POINT
  8
_0-9_
 62
    4
 10
162.62565399348006
 20
466.31025795565063
  0
LINE
  8
_0-9_
  6
CONTINUOUS
 62
    4
 10
119.62565399348
 20
468.31025795565063
 11
119.62565399348
 21
452.21025795565066
  0
LINE
  8
_0-9_
  6
CONTINUOUS
 62
    4
 10
162.62565399348006
 20
468.31025795565063
 11
162.62565399348006
 21
452.21025795565066
  0
LINE
  8
_0-9_
  6
CONTINUOUS
 62
    4
 10
119.62565399348
 20
466.31025795565063
 11
162.62565399348006
 21
466.31025795565063
  0
TEXT
  8
_0-9_
 62
    3
 10
136.87565399348
 20
467.31025795565063
 40
10
 41
0.8
 50
0
  1
43
  0
LINE
  8
_0-1_一般図
  6
CONTINUOUS
 62
    7
 10
293.87434600652028
 20
250
 11
293.87434600652028
 21
450.31025795565063
  0
LINE
  8
_0-1_一般図
  6
CONTINUOUS
 62
    7
 10
293.87434600652028
 20
450.31025795565063
 11
488.18667685586007
 21
450.31025795565063
  0
LINE
  8
_0-1_一般図
  6
CONTINUOUS
 62
    7
 10
509.27527608148876
 20
450.31025795565063
 11
694.87434600652023
 21
450.31025795565063
  0
LINE
  8
_0-1_一般図
  6
CONTINUOUS
 62
    7
 10
293.87434600652028
 20
387.71025795565066
 11
488.18667685586007
 21
387.71025795565066
  0
LINE
  8
_0-1_一般図
  6
CONTINUOUS
 62
    7
 10
509.27527608148876
 20
387.71025795565066
 11
694.87434600652023
 21
387.71025795565066
  0
LINE
  8
_0-1_一般図
  6
CONTINUOUS
 62
    7
 10
694.87434600652023
 20
450.31025795565063
 11
694.87434600652023
 21
387.71025795565066
  0
LINE
  8
_0-1_一般図
  6
DASHED1
 62
    3
 10
293.87434600652028
 20
445.31025795565063
 11
488.18667685586007
 21
445.31025795565063
  0
LINE
  8
_0-1_一般図
  6
DASHED1
 62
    3
 10
509.27527608148876
 20
445.31025795565063
 11
694.87434600652023
 21
445.31025795565063
  0
LINE
  8
_0-1_一般図
  6
DASHED1
 62
    3
 10
694.87434600652023
 20
390
 11
509.27527608148876
 21
390
  0
LINE
  8
_0-1_一般図
  6
DASHED1
 62
    3
 10
488.18667685586007
 20
390
 11
293.87434600652028
 21
390
  0
POINT
  8
_0-9_
 62
    4
 10
293.87434600652028
 20
466.31025795565063
  0
POINT
  8
_0-9_
 62
    4
 10
694.87434600652023
 20
466.31025795565063
  0
LINE
  8
_0-9_
  6
CONTINUOUS
 62
    4
 10
293.87434600652028
 20
468.31025795565063
 11
293.87434600652028
 21
452.31025795565063
  0
LINE
  8
_0-9_
  6
CONTINUOUS
 62
    4
 10
694.87434600652023
 20
468.31025795565063
 11
694.87434600652023
 21
452.31025795565063
  0
CIRCLE
  8
_0-1_一般図
  6
CONTINUOUS
 62
    7
 10
614.87434600652023
 20
412.81025795565068
 40
9.0000000000002132
  0
ARC
  8
_0-1_一般図
  6
DASHED1
 62
    3
 10
614.87434600652023
 20
432.1102579556507
 40
4.200000000000002
 50
0
 51
180
  0
ARC
  8
_0-1_一般図
  6
DASHED1
 62
    3
 10
614.87434600652023
 20
410.51025795565067
 40
4.200000000000002
 50
180
 51
0
  0
LINE
  8
_0-1_一般図
  6
DASHED1
 62
    3
 10
619.07434600652027
 20
432.1102579556507
 11
619.07434600652027
 21
410.51025795565067
  0
LINE
  8
_0-1_一般図
  6
DASHED1
 62
    3
 10
610.67434600652018
 20
432.1102579556507
 11
610.67434600652018
 21
410.51025795565067
  0
LINE
  8
_0-1_一般図
  6
CENTER1
 62
    4
 10
602.72282493857165
 20
412.81025795565068
 11
626.31077559828771
 21
412.81025795565068
  0
LINE
  8
_0-1_一般図
  6
CENTER1
 62
    4
 10
614.87434600652023
 20
438.54901894991184
 11
614.87434600652023
 21
399.71255832031284
  0
CIRCLE
  8
_0-1_一般図
  6
DASHED1
 62
    3
 10
614.87434600652023
 20
412.81025795565068
 40
6
  0
CIRCLE
  8
_0-1_一般図
  6
CONTINUOUS
 62
    7
 10
373.87434600652028
 20
412.81025795565068
 40
9.0000000000002132
  0
ARC
  8
_0-1_一般図
  6
DASHED1
 62
    3
 10
373.87434600652028
 20
432.1102579556507
 40
4.200000000000002
 50
0
 51
180
  0
ARC
  8
_0-1_一般図
  6
DASHED1
 62
    3
 10
373.87434600652028
 20
410.51025795565067
 40
4.200000000000002
 50
180
 51
0
  0
LINE
  8
_0-1_一般図
  6
DASHED1
 62
    3
 10
378.07434600652027
 20
432.1102579556507
 11
378.07434600652027
 21
410.51025795565067
  0
LINE
  8
_0-1_一般図
  6
DASHED1
 62
    3
 10
369.6743460065203
 20
432.1102579556507
 11
369.6743460065203
 21
410.51025795565067
  0
LINE
  8
_0-1_一般図
  6
CENTER1
 62
    4
 10
361.72282493857165
 20
412.81025795565068
 11
385.31077559828776
 21
412.81025795565068
  0
LINE
  8
_0-1_一般図
  6
CENTER1
 62
    4
 10
373.87434600652028
 20
438.54901894991184
 11
373.87434600652028
 21
399.71255832031284
  0
CIRCLE
  8
_0-1_一般図
  6
DASHED1
 62
    3
 10
373.87434600652028
 20
412.81025795565068
 40
6
  0
LINE
  8
_0-9_
  6
CONTINUOUS
 62
    4
 10
293.87434600652028
 20
226
 11
703.87434600652023
 21
226
  0
LINE
  8
_0-9_
  6
CONTINUOUS
 62
    4
 10
293.87434600652028
 20
466.31025795565063
 11
694.87434600652023
 21
466.31025795565063
  0
LINE
  8
_0-9_
  6
CONTINUOUS
 62
    4
 10
235.12565399348
 20
390
 11
235.12565399348
 21
450.31025795565063
  0
TEXT
  8
_0-9_
 62
    3
 10
476.62434600652023
 20
227
 40
10
 41
0.8
 50
0
  1
2900・3900
  0
TEXT
  8
_0-9_
 62
    3
 10
472.12434600652028
 20
467.31025795565063
 40
10
 41
0.8
 50
0
  1
2891・3891
  0
TEXT
  8
_0-9_
 62
    3
 10
234.12565399348
 20
406.90512897782531
 40
10
 41
0.8
 50
90
  1
60～77
  0
TEXT
  8
_0-a_
 62
    3
 10
232.60745799323013
 20
32.5
 40
10
 41
0.8
 50
0
  1
防犯用雨とい　バンドレス丸とい
  0
TEXT
  8
_0-a_
 62
    3
 10
679.59231299323017
 20
32.5
 40
10
 41
0.8
 50
0
  1
MBA-140-1
  0
ENDSEC
  0
EOF
