  0
SECTION
  2
HEADER
  9
$ACADVER
  1
AC1009
  9
$INSBASE
 10
0
 20
0
 30
0
  9
$EXTMIN
 10
0
 20
0
  9
$EXTMAX
 10
420
 20
297
  9
$LIMMIN
 10
0
 20
0
  9
$LIMMAX
 10
420
 20
297
  9
$LTSCALE
 40
1
  0
ENDSEC
  0
SECTION
  2
TABLES
  0
TABLE
  2
LTYPE
 70
     9
  0
LTYPE
  2
CONTINUOUS
 70
    64
  3
実線
 72
    65
 73
     0
 40
0.0
  0
LTYPE
  2
DASHED1
 70
    64
  3
--  --  --  --  --  --  --  --  
 72
    65
 73
     2
 40
2.5
 49
1.25
 49
-1.25
  0
LTYPE
  2
DASHED2
 70
    64
  3
----    ----    ----    ----    
 72
    65
 73
     2
 40
5.0
 49
2.5
 49
-2.5
  0
LTYPE
  2
DASHED3
 70
    64
  3
------  ------  ------  ------  
 72
    65
 73
     2
 40
5.0
 49
3.75
 49
-1.25
  0
LTYPE
  2
CENTER1
 70
    64
  3
----- - ----- - ----- - ----- - 
 72
    65
 73
     4
 40
10.0
 49
6.25
 49
-1.25
 49
1.25
 49
-1.25
  0
LTYPE
  2
CENTER2
 70
    64
  3
----------  --  ----------  --  
 72
    65
 73
     4
 40
20.0
 49
12.5
 49
-2.5
 49
2.5
 49
-2.5
  0
LTYPE
  2
PHANTOM1
 70
    64
  3
--- - - --- - - --- - - --- - - 
 72
    65
 73
     6
 40
10.0
 49
3.25
 49
-1.25
 49
1.25
 49
-1.25
 49
1.25
 49
-1.25
  0
LTYPE
  2
PHANTOM2
 70
    64
  3
--------  -  -  --------  -  -  
 72
    65
 73
     6
 40
20.0
 49
10.0
 49
-2.5
 49
1.25
 49
-2.5
 49
1.25
 49
-2.5
  0
LTYPE
  2
DOT
 70
    64
  3
-   -   -   -   -   -   -   -   
 72
    65
 73
     2
 40
2.5
 49
0.625
 49
-1.875
  0
LTYPE
  2
DUMMY
 70
    64
  3
ダミー
 72
    65
 73
     0
 40
0.0
  0
LTYPE
  2
RAND1
 70
    64
  3
ランダム線1
 72
    65
 73
     4
 40
10.0
 49
1.0
 49
-2.0
 49
3.0
 49
-4.0
  0
LTYPE
  2
RAND2
 70
    64
  3
ランダム線2
 72
    65
 73
     4
 40
14.0
 49
2.0
 49
-3.0
 49
4.0
 49
-5.0
  0
LTYPE
  2
RAND3
 70
    64
  3
ランダム線3
 72
    65
 73
     4
 40
18.0
 49
3.0
 49
-4.0
 49
5.0
 49
-6.0
  0
LTYPE
  2
RAND4
 70
    64
  3
ランダム線4
 72
    65
 73
     4
 40
22.0
 49
4.0
 49
-5.0
 49
6.0
 49
-7.0
  0
LTYPE
  2
RAND5
 70
    64
  3
ランダム線5
 72
    65
 73
     4
 40
26.0
 49
5.0
 49
-6.0
 49
7.0
 49
-8.0
  0
LTYPE
  2
LONG1
 70
    64
  3
----------  --  ----------  --  
 72
    65
 73
     4
 40
40.0
 49
32.5
 49
-2.5
 49
2.5
 49
-2.5
  0
LTYPE
  2
LONG2
 70
    64
  3
--------  -  -  --------  -  -  
 72
    65
 73
     6
 40
40.0
 49
30.0
 49
-2.5
 49
1.25
 49
-2.5
 49
1.25
 49
-2.5
  0
LTYPE
  2
LONG3
 70
    64
  3
+++++++++++++++..+++++++++++++++
 72
    65
 73
     2
 40
40.0
 49
37.5
 49
-2.5
  0
LTYPE
  2
LONG4
 70
    64
  3
+++++++++++++++..+++++++++++++++
 72
    65
 73
     2
 40
80.0
 49
75.0
 49
-5.0
  0
LTYPE
  2
LONG5
 70
    64
  3
----------  --  ----------  --  
 72
    65
 73
     4
 40
60.0
 49
37.5
 49
-7.5
 49
7.5
 49
-7.5
  0
LTYPE
  2
dashed
 70
   64
  3
-------   -------------   ------
 72
   65
 73
    2
 40
7.5
 49
6
 49
-1.5
  0
LTYPE
  2
dashed_spaced
 70
   64
  3
----        --------        ----
 72
   65
 73
    2
 40
12
 49
6
 49
-6
  0
LTYPE
  2
long_dashed_dotted
 70
   64
  3
------------- --- --------------
 72
   65
 73
    4
 40
15.25
 49
12
 49
-1.5
 49
0.25
 49
-1.5
  0
LTYPE
  2
long_dashed_double-dotted
 70
   64
  3
----------- --- --- ------------
 72
   65
 73
    6
 40
17
 49
12
 49
-1.5
 49
0.25
 49
-1.5
 49
0.25
 49
-1.5
  0
LTYPE
  2
long_dashed_triplicate-dotted
 70
   64
  3
--------- --- --- --- ----------
 72
   65
 73
    8
 40
18.75
 49
12
 49
-1.5
 49
0.25
 49
-1.5
 49
0.25
 49
-1.5
 49
0.25
 49
-1.5
  0
LTYPE
  2
dotted
 70
   64
  3
   -       -       -       -    
 72
   65
 73
    2
 40
1.75
 49
0.25
 49
-1.5
  0
LTYPE
  2
chain
 70
   64
  3
-------------- -- --------------
 72
   65
 73
    4
 40
18.5
 49
12
 49
-1.5
 49
3.5
 49
-1.5
  0
LTYPE
  2
chain_double_dash
 70
   64
  3
------------ -- -- -------------
 72
   65
 73
    6
 40
23.5
 49
12
 49
-1.5
 49
3.5
 49
-1.5
 49
3.5
 49
-1.5
  0
LTYPE
  2
dashed_dotted
 70
   64
  3
-----------     -     ----------
 72
   65
 73
    4
 40
9.25
 49
6
 49
-1.5
 49
0.25
 49
-1.5
  0
LTYPE
  2
double-dashed_dotted
 70
   64
  3
------   -----------   -   -----
 72
   65
 73
    6
 40
16.75
 49
6
 49
-1.5
 49
6
 49
-1.5
 49
0.25
 49
-1.5
  0
LTYPE
  2
dashed_double-dotted
 70
   64
  3
---------    -    -    ---------
 72
   65
 73
    6
 40
11
 49
6
 49
-1.5
 49
0.25
 49
-1.5
 49
0.25
 49
-1.5
  0
LTYPE
  2
double-dashed_double-dotted
 70
   64
  3
-----   ---------   -   -   ----
 72
   65
 73
    8
 40
18.5
 49
6
 49
-1.5
 49
6
 49
-1.5
 49
0.25
 49
-1.5
 49
0.25
 49
-1.5
  0
LTYPE
  2
dashed_triplicate-dotted
 70
   64
  3
-------    -    -    -    ------
 72
   65
 73
    8
 40
12.75
 49
6
 49
-1.5
 49
0.25
 49
-1.5
 49
0.25
 49
-1.5
 49
0.25
 49
-1.5
  0
LTYPE
  2
double-dashed_triplicate-dotted
 70
   64
  3
-----  ---------  -  -  -  -----
 72
   65
 73
   10
 40
20.25
 49
6
 49
-1.5
 49
6
 49
-1.5
 49
0.25
 49
-1.5
 49
0.25
 49
-1.5
 49
0.25
 49
-1.5
  0
LTYPE
  2
undefined
 70
   64
  3
--------------------------------
 72
   65
 73
    0
 40
0
  0
ENDTAB
  0
TABLE
  2
STYLE
  5
3
100
AcDbSymbolTable
 70
     1
  0
STYLE
  5
10
100
AcDbSymbolTableRecord
100
AcDbTextStyleTableRecord
  2
STANDARD
 70
     0
 40
0.0
 41
1.0
 50
0.0
 71
     0
 42
0.2
  3
txt
  4
bigfont.shx
  0
STYLE
  5
26
100
AcDbSymbolTableRecord
100
AcDbTextStyleTableRecord
  2
TATEGAKI
 70
    68
 40
0.0
 41
1.0
 50
0.0
 71
     0
 42
1.0
  3
txt
  4
bigfont.shx
  0
ENDTAB
  0
TABLE
  2
LAYER
 70
    6
  0
LAYER
  2
_0-1_一般図
 70
   64
 62
    7
  6
CONTINUOUS
  0
LAYER
  2
_0-9_
 70
   64
 62
    7
  6
CONTINUOUS
  0
LAYER
  2
_0-a_
 70
   64
 62
    7
  6
CONTINUOUS
  0
LAYER
  2
_f-1_一般図
 70
   64
 62
    7
  6
CONTINUOUS
  0
LAYER
  2
_f-a_
 70
   64
 62
    7
  6
CONTINUOUS
  0
LAYER
  2
ADD_LINE
 70
   64
 62
    7
  6
CONTINUOUS
  0
ENDTAB
  0
ENDSEC
  0
SECTION
  2
BLOCKS
  0
BLOCK
  2
-000-ATN-60
 70
   64
 10
0
 20
0
 30
0
  0
CIRCLE
  8
_0-1_一般図
  6
CONTINUOUS
 62
    7
 10
-0.0000000000001563
 20
23.447425947109419
 40
28.699999999999999
  0
LINE
  8
_0-1_一般図
  6
CONTINUOUS
 62
    7
 10
-16.065712826617258
 20
-5.5265483665051818
 11
-16.699999999999946
 21
-5.5265483665051818
  0
LINE
  8
_0-1_一般図
  6
CONTINUOUS
 62
    7
 10
16.065712826617286
 20
-5.5265483665051889
 11
16.700000000000031
 21
-5.5265483665051889
  0
ARC
  8
_0-1_一般図
  6
CONTINUOUS
 62
    7
 10
-15.58480575669428
 20
-5.7046039194475213
 40
1.4218416325267724
 50
186.24039513560112
 51
11.274861586275563
  0
ARC
  8
_0-1_一般図
  6
CONTINUOUS
 62
    7
 10
-16.699999999999946
 20
-5.8265483665051931
 40
0.3
 50
90
 51
186.24039513560106
  0
ARC
  8
_0-1_一般図
  6
CONTINUOUS
 62
    7
 10
-16.065712826617258
 20
-5.2265483665051704
 40
0.3
 50
270
 51
11.27486158627562
  0
ARC
  8
_0-1_一般図
  6
CONTINUOUS
 62
    7
 10
15.584805756694337
 20
-5.7046039194475284
 40
1.4218416325267724
 50
168.72513841372435
 51
353.75960486439885
  0
ARC
  8
_0-1_一般図
  6
CONTINUOUS
 62
    7
 10
16.700000000000031
 20
-5.8265483665052002
 40
0.3
 50
353.75960486439891
 51
90
  0
ARC
  8
_0-1_一般図
  6
CONTINUOUS
 62
    7
 10
16.065712826617286
 20
-5.2265483665051775
 40
0.3
 50
168.72513841372435
 51
270
  0
LINE
  8
_0-1_一般図
  6
CONTINUOUS
 62
    7
 10
15.771502666070504
 20
-5.1678936017282595
 11
16.454022606921072
 21
-1.7443984749867312
  0
ARC
  8
_0-1_一般図
  6
CONTINUOUS
 62
    7
 10
16.748232767467854
 20
-1.8030532397636776
 40
0.3
 50
123.55567049683009
 51
168.72513841372324
  0
LINE
  8
_0-1_一般図
  6
CONTINUOUS
 62
    7
 10
14.611311371087467
 20
-3.3153598263172981
 11
14.190404906768364
 21
-5.4266112977611343
  0
ARC
  8
_0-1_一般図
  6
CONTINUOUS
 62
    7
 10
14.317101210540685
 20
-3.2567050615403517
 40
0.3
 50
348.72513841372324
 51
118.19745324441436
  0
LINE
  8
_0-1_一般図
  6
CONTINUOUS
 62
    7
 10
-14.611311371087382
 20
-3.3153598263174899
 11
-14.190404906768308
 21
-5.4266112977611272
  0
ARC
  8
_0-1_一般図
  6
CONTINUOUS
 62
    7
 10
-0.0000000000001563
 20
23.447425947109419
 40
30
 50
241.80254675558714
 51
298.19745324441374
  0
ARC
  8
_0-1_一般図
  6
CONTINUOUS
 62
    7
 10
-14.317101210540599
 20
-3.2567050615405435
 40
0.3
 50
61.802546755585638
 51
191.2748615862767
  0
LINE
  8
_0-1_一般図
  6
CONTINUOUS
 62
    7
 10
-15.771502666070447
 20
-5.1678936017282524
 11
-16.454022606920987
 21
-1.7443984749869514
  0
ARC
  8
_0-1_一般図
  6
CONTINUOUS
 62
    7
 10
-0.0000000000001563
 20
23.447425947109419
 40
30
 50
303.55567049683032
 51
236.44432950317056
  0
ARC
  8
_0-1_一般図
  6
CONTINUOUS
 62
    7
 10
-16.748232767467769
 20
-1.8030532397638979
 40
0.3
 50
11.27486158627673
 51
56.444329503169882
  0
ENDBLK
  0
BLOCK
  2
-001-M-B-1
 70
   64
 10
0
 20
0
 30
0
  0
LINE
  8
_0-1_一般図
  6
CONTINUOUS
 62
    7
 10
-95.803045193407996
 20
-23.593346375839502
 11
-116.68357688766432
 21
-23.593346375839502
  0
ARC
  8
_0-1_一般図
  6
CONTINUOUS
 62
    7
 10
-116.68357688766432
 20
-23.493346375839508
 40
0.1
 50
180
 51
270
  0
LINE
  8
_0-1_一般図
  6
CONTINUOUS
 62
    7
 10
-116.78357688766431
 20
-23.493346375839508
 11
-116.78357688766431
 21
38.906653624160491
  0
ARC
  8
_0-1_一般図
  6
CONTINUOUS
 62
    7
 10
-116.68357688766432
 20
38.906653624160491
 40
0.1
 50
90
 51
180
  0
LINE
  8
_0-1_一般図
  6
CONTINUOUS
 62
    7
 10
-113.9335768876643
 20
39.006653624160492
 11
-116.68357688766432
 21
39.006653624160492
  0
ARC
  8
_0-1_一般図
  6
CONTINUOUS
 62
    7
 10
-113.9335768876643
 20
38.906653624160491
 40
0.1
 50
0
 51
90
  0
LINE
  8
_0-1_一般図
  6
CONTINUOUS
 62
    7
 10
-113.83357688766431
 20
-18.493346375839508
 11
-113.83357688766431
 21
38.906653624160491
  0
ARC
  8
_0-1_一般図
  6
CONTINUOUS
 62
    7
 10
-113.73357688766431
 20
-18.493346375839508
 40
0.1
 50
180
 51
270
  0
LINE
  8
_0-1_一般図
  6
CONTINUOUS
 62
    7
 10
-113.73357688766431
 20
-18.593346375839502
 11
-108.11781128647672
 21
-18.593346375839502
  0
ARC
  8
_0-1_一般図
  6
CONTINUOUS
 62
    7
 10
-108.11781128647672
 20
-18.927580774651915
 40
0.3342343988124065
 50
308.69380892409748
 51
90
  0
ARC
  8
_0-1_一般図
  6
CONTINUOUS
 62
    7
 10
-106.78357688766431
 20
-20.593346375839502
 40
1.8
 50
128.69380892409711
 51
51.306191075902746
  0
ARC
  8
_0-1_一般図
  6
CONTINUOUS
 62
    7
 10
-105.4493424888519
 20
-18.927580774651915
 40
0.3342343988124089
 50
90
 51
231.30619107590303
  0
LINE
  8
_0-1_一般図
  6
CONTINUOUS
 62
    7
 10
-85.117811286476723
 20
-18.593346375839502
 11
-105.4493424888519
 21
-18.593346375839502
  0
ARC
  8
_0-1_一般図
  6
CONTINUOUS
 62
    7
 10
-85.117811286476723
 20
-18.927580774651915
 40
0.3342343988124089
 50
308.69380892409691
 51
90
  0
ARC
  8
_0-1_一般図
  6
CONTINUOUS
 62
    7
 10
-83.78357688766431
 20
-20.593346375839502
 40
1.8
 50
128.69380892409725
 51
51.306191075902859
  0
ARC
  8
_0-1_一般図
  6
CONTINUOUS
 62
    7
 10
-82.449342488851897
 20
-18.927580774651915
 40
0.3342343988124065
 50
90
 51
231.30619107590252
  0
LINE
  8
_0-1_一般図
  6
CONTINUOUS
 62
    7
 10
-76.833576887664307
 20
-18.593346375839502
 11
-82.449342488851897
 21
-18.593346375839502
  0
ARC
  8
_0-1_一般図
  6
CONTINUOUS
 62
    7
 10
-76.833576887664307
 20
-18.493346375839508
 40
0.1
 50
270
 51
0
  0
LINE
  8
_0-1_一般図
  6
CONTINUOUS
 62
    7
 10
-76.733576887664313
 20
38.906653624160491
 11
-76.733576887664313
 21
-18.493346375839508
  0
ARC
  8
_0-1_一般図
  6
CONTINUOUS
 62
    7
 10
-76.633576887664304
 20
38.906653624160491
 40
0.1
 50
90
 51
180
  0
LINE
  8
_0-1_一般図
  6
CONTINUOUS
 62
    7
 10
-73.883576887664304
 20
39.006653624160492
 11
-76.633576887664304
 21
39.006653624160492
  0
ARC
  8
_0-1_一般図
  6
CONTINUOUS
 62
    7
 10
-73.883576887664304
 20
38.906653624160491
 40
0.1
 50
0
 51
90
  0
LINE
  8
_0-1_一般図
  6
CONTINUOUS
 62
    7
 10
-73.78357688766431
 20
38.906653624160491
 11
-73.78357688766431
 21
-23.493346375839508
  0
ARC
  8
_0-1_一般図
  6
CONTINUOUS
 62
    7
 10
-73.883576887664304
 20
-23.493346375839508
 40
0.1
 50
270
 51
0
  0
LINE
  8
_0-1_一般図
  6
CONTINUOUS
 62
    7
 10
-73.883576887664304
 20
-23.593346375839502
 11
-94.763814708866647
 21
-23.593346375839502
  0
ARC
  8
_0-1_一般図
  6
CONTINUOUS
 62
    7
 10
-94.763814708866647
 20
-23.293346375839555
 40
0.3
 50
209.99999999999568
 51
270
  0
ARC
  8
_0-1_一般図
  6
CONTINUOUS
 62
    7
 10
-95.283429951137322
 20
-23.593346375839509
 40
0.3
 50
29.999999999995691
 51
149.99999999999963
  0
ARC
  8
_0-1_一般図
  6
CONTINUOUS
 62
    7
 10
-95.803045193407996
 20
-23.293346375839555
 40
0.3
 50
270
 51
330.00000000000432
  0
LINE
  8
_0-1_一般図
  6
DASHED1
 62
    3
 10
-116.78357688766431
 20
19.906653624160498
 11
-113.83357688766431
 21
19.906653624160498
  0
LINE
  8
_0-1_一般図
  6
DASHED1
 62
    3
 10
-116.78357688766431
 20
7.9066536241604979
 11
-113.83357688766431
 21
7.9066536241604979
  0
LINE
  8
_0-1_一般図
  6
DASHED1
 62
    3
 10
-73.78357688766431
 20
19.906653624160498
 11
-76.733576887664313
 21
19.906653624160498
  0
LINE
  8
_0-1_一般図
  6
DASHED1
 62
    3
 10
-73.78357688766431
 20
7.9066536241604979
 11
-76.733576887664313
 21
7.9066536241604979
  0
LINE
  8
_0-1_一般図
  6
DASHED1
 62
    3
 10
-87.78357688766431
 20
-18.593346375839502
 11
-87.78357688766431
 21
-23.593346375839502
  0
LINE
  8
_0-1_一般図
  6
DASHED1
 62
    3
 10
-102.78357688766431
 20
-18.593346375839502
 11
-102.78357688766431
 21
-23.593346375839502
  0
ENDBLK
  0
BLOCK
  2
-002-M-A-1
 70
   64
 10
0
 20
0
 30
0
  0
LINE
  8
_0-9_
  6
CONTINUOUS
 62
    7
 10
16.310078127036164
 20
30.642846439757339
 11
16.900243907977497
 21
30.642846439757339
  0
ARC
  8
_0-9_
  6
CONTINUOUS
 62
    7
 10
16.900243907977497
 20
30.34284643975727
 40
0.3
 50
0
 51
90
  0
ARC
  8
_0-9_
  6
CONTINUOUS
 62
    7
 10
18.200005519780987
 20
35.142859913571876
 40
0.3
 50
0
 51
152.11909256481778
  0
ARC
  8
_0-9_
  6
CONTINUOUS
 62
    7
 10
16.310078127036221
 20
31.142846439757339
 40
0.5
 50
152.119092564818
 51
269.99999999999994
  0
LINE
  8
_0-9_
  6
CONTINUOUS
 62
    7
 10
17.934829067263834
 20
35.283150501390288
 11
15.868117372840985
 21
31.376664086121369
  0
ARC
  8
_0-9_
  6
CONTINUOUS
 62
    7
 10
-0.5197566590165791
 20
-19.35772452627219
 40
0.3
 50
29.999999999995691
 51
90
  0
ARC
  8
_0-9_
  6
CONTINUOUS
 62
    7
 10
-0.0001414167459046
 20
-19.057724526272235
 40
0.3
 50
209.99999999999568
 51
329.9999999999996
  0
ARC
  8
_0-9_
  6
CONTINUOUS
 62
    7
 10
0.5194738255247699
 20
-19.35772452627219
 40
0.3
 50
90
 51
150.00000000000432
  0
ARC
  8
_0-9_
  6
CONTINUOUS
 62
    7
 10
-2.0001266292708664
 20
-21.857725881299924
 40
0.3
 50
89.998329108938208
 51
120.94611808112874
  0
LINE
  8
_0-9_
  6
CONTINUOUS
 62
    7
 10
-2.8458497097309277
 20
-22.015013191807096
 11
-2.154396155073286
 21
-21.600430499668786
  0
ARC
  8
_0-9_
  6
CONTINUOUS
 62
    7
 10
-3.0001192355333473
 20
-21.757717810175958
 40
0.3
 50
270.00167089106179
 51
300.94611808112876
  0
ARC
  8
_0-9_
  6
CONTINUOUS
 62
    7
 10
-2.0001091317405866
 20
-21.857725881299924
 40
0.3
 50
59.053881918871248
 51
90.001670891061792
  0
LINE
  8
_0-9_
  6
CONTINUOUS
 62
    7
 10
-1.1543860512805253
 20
-22.015013191807096
 11
-1.845839605938167
 21
-21.600430499668786
  0
ARC
  8
_0-9_
  6
CONTINUOUS
 62
    7
 10
-1.0001165254781057
 20
-21.757717810175958
 40
0.3
 50
239.05388191887124
 51
269.99832910893821
  0
ARC
  8
_0-9_
  6
CONTINUOUS
 62
    7
 10
-4.0001118417958281
 20
-21.857725881299924
 40
0.3
 50
89.998329108938208
 51
120.94611808112874
  0
LINE
  8
_0-9_
  6
CONTINUOUS
 62
    7
 10
-4.8458349222558894
 20
-22.015013191807096
 11
-4.1543813675982477
 21
-21.600430499668786
  0
ARC
  8
_0-9_
  6
CONTINUOUS
 62
    7
 10
-5.000104448058309
 20
-21.757717810175958
 40
0.3
 50
270.00167089106179
 51
300.94611808112876
  0
ARC
  8
_0-9_
  6
CONTINUOUS
 62
    7
 10
-4.0000943442655483
 20
-21.857725881299924
 40
0.3
 50
59.053881918871248
 51
90.001670891061792
  0
LINE
  8
_0-9_
  6
CONTINUOUS
 62
    7
 10
-3.154371263805487
 20
-22.015013191807096
 11
-3.8458248184631287
 21
-21.600430499668786
  0
ARC
  8
_0-9_
  6
CONTINUOUS
 62
    7
 10
-3.0001017380030675
 20
-21.757717810175958
 40
0.3
 50
239.05388191887124
 51
269.99832910893821
  0
ARC
  8
_0-9_
  6
CONTINUOUS
 62
    7
 10
-6.0000970543207899
 20
-21.857725881299924
 40
0.3
 50
89.998329108938208
 51
120.94611808112874
  0
LINE
  8
_0-9_
  6
CONTINUOUS
 62
    7
 10
-6.8458201347808512
 20
-22.015013191807096
 11
-6.1543665801232095
 21
-21.600430499668786
  0
ARC
  8
_0-9_
  6
CONTINUOUS
 62
    7
 10
-6.0000795567905101
 20
-21.857725881299924
 40
0.3
 50
59.053881918871248
 51
90.001670891061792
  0
LINE
  8
_0-9_
  6
CONTINUOUS
 62
    7
 10
-5.1543564763304488
 20
-22.015013191807096
 11
-5.8458100309880905
 21
-21.600430499668786
  0
ARC
  8
_0-9_
  6
CONTINUOUS
 62
    7
 10
-5.0000869505280292
 20
-21.757717810175958
 40
0.3
 50
239.05388191887124
 51
269.99832910893821
  0
ARC
  8
_0-9_
  6
CONTINUOUS
 62
    7
 10
-0.0001239192156248
 20
-21.857725881299924
 40
0.3
 50
59.053881918871248
 51
90.001670891061792
  0
LINE
  8
_0-9_
  6
CONTINUOUS
 62
    7
 10
0.8455991612444364
 20
-22.015013191807096
 11
0.1541456065867947
 21
-21.600430499668786
  0
ARC
  8
_0-9_
  6
CONTINUOUS
 62
    7
 10
-0.0001414167459046
 20
-21.857725881299924
 40
0.3
 50
89.998329108938208
 51
120.94611808112874
  0
LINE
  8
_0-9_
  6
CONTINUOUS
 62
    7
 10
-0.8458644972059659
 20
-22.015013191807096
 11
-0.1544109425483242
 21
-21.600430499668786
  0
ARC
  8
_0-9_
  6
CONTINUOUS
 62
    7
 10
-1.0001340230083855
 20
-21.757717810175958
 40
0.3
 50
270.00167089106179
 51
300.94611808112876
  0
ARC
  8
_0-9_
  6
CONTINUOUS
 62
    7
 10
-7.000104448058309
 20
-21.757717810175958
 40
0.3
 50
270.00167089106179
 51
300.94611808112876
  0
ARC
  8
_0-9_
  6
CONTINUOUS
 62
    7
 10
-8.0000970543207899
 20
-21.857725881299924
 40
0.3
 50
89.998329108938208
 51
120.94611808112874
  0
LINE
  8
_0-9_
  6
CONTINUOUS
 62
    7
 10
-8.8458201347808512
 20
-22.015013191807096
 11
-8.1543665801232095
 21
-21.600430499668786
  0
ARC
  8
_0-9_
  6
CONTINUOUS
 62
    7
 10
-8.0000795567905101
 20
-21.857725881299924
 40
0.3
 50
59.053881918871248
 51
90.001670891061792
  0
LINE
  8
_0-9_
  6
CONTINUOUS
 62
    7
 10
-7.1543564763304488
 20
-22.015013191807096
 11
-7.8458100309880905
 21
-21.600430499668786
  0
ARC
  8
_0-9_
  6
CONTINUOUS
 62
    7
 10
-7.0000869505280292
 20
-21.757717810175958
 40
0.3
 50
239.05388191887124
 51
269.99832910893821
  0
ARC
  8
_0-9_
  6
CONTINUOUS
 62
    7
 10
-9.000104448058309
 20
-21.757717810175958
 40
0.3
 50
270.00167089106179
 51
300.94611808112876
  0
ARC
  8
_0-9_
  6
CONTINUOUS
 62
    7
 10
-10.00009705432079
 20
-21.857725881299924
 40
0.3
 50
89.998329108938208
 51
120.94611808112874
  0
ARC
  8
_0-9_
  6
CONTINUOUS
 62
    7
 10
-10.00007955679051
 20
-21.857725881299924
 40
0.3
 50
59.053881918871248
 51
90.001670891061792
  0
LINE
  8
_0-9_
  6
CONTINUOUS
 62
    7
 10
-9.1543564763304488
 20
-22.015013191807096
 11
-9.8458100309880905
 21
-21.600430499668786
  0
ARC
  8
_0-9_
  6
CONTINUOUS
 62
    7
 10
-9.0000869505280292
 20
-21.757717810175958
 40
0.3
 50
239.05388191887124
 51
269.99832910893821
  0
LINE
  8
_0-9_
  6
CONTINUOUS
 62
    7
 10
-10.845820134780851
 20
-22.015013191807096
 11
-10.154366580123209
 21
-21.600430499668786
  0
ARC
  8
_0-9_
  6
CONTINUOUS
 62
    7
 10
2.0001376688334886
 20
-21.857725881299924
 40
0.3
 50
59.053881918871248
 51
90.001670891061792
  0
LINE
  8
_0-9_
  6
CONTINUOUS
 62
    7
 10
2.8458607492935499
 20
-22.015013191807096
 11
2.1544071946359082
 21
-21.600430499668786
  0
ARC
  8
_0-9_
  6
CONTINUOUS
 62
    7
 10
3.0001302750959695
 20
-21.757717810175958
 40
0.3
 50
239.05388191887124
 51
269.99832910893821
  0
ARC
  8
_0-9_
  6
CONTINUOUS
 62
    7
 10
2.0001201713032088
 20
-21.857725881299924
 40
0.3
 50
89.998329108938208
 51
120.94611808112874
  0
LINE
  8
_0-9_
  6
CONTINUOUS
 62
    7
 10
1.1543970908431476
 20
-22.015013191807096
 11
1.8458506455007893
 21
-21.600430499668786
  0
ARC
  8
_0-9_
  6
CONTINUOUS
 62
    7
 10
1.000127565040728
 20
-21.757717810175958
 40
0.3
 50
270.00167089106179
 51
300.94611808112876
  0
ARC
  8
_0-9_
  6
CONTINUOUS
 62
    7
 10
4.0001228813584504
 20
-21.857725881299924
 40
0.3
 50
59.053881918871248
 51
90.001670891061792
  0
LINE
  8
_0-9_
  6
CONTINUOUS
 62
    7
 10
4.8458459618185117
 20
-22.015013191807096
 11
4.15439240716087
 21
-21.600430499668786
  0
ARC
  8
_0-9_
  6
CONTINUOUS
 62
    7
 10
5.0001154876209313
 20
-21.757717810175958
 40
0.3
 50
239.05388191887124
 51
269.99832910893821
  0
ARC
  8
_0-9_
  6
CONTINUOUS
 62
    7
 10
4.0001053838281706
 20
-21.857725881299924
 40
0.3
 50
89.998329108938208
 51
120.94611808112874
  0
LINE
  8
_0-9_
  6
CONTINUOUS
 62
    7
 10
3.1543823033681093
 20
-22.015013191807096
 11
3.845835858025751
 21
-21.600430499668786
  0
ARC
  8
_0-9_
  6
CONTINUOUS
 62
    7
 10
3.0001127775656897
 20
-21.757717810175958
 40
0.3
 50
270.00167089106179
 51
300.94611808112876
  0
ARC
  8
_0-9_
  6
CONTINUOUS
 62
    7
 10
6.0001080938834122
 20
-21.857725881299924
 40
0.3
 50
59.053881918871248
 51
90.001670891061792
  0
LINE
  8
_0-9_
  6
CONTINUOUS
 62
    7
 10
6.8458311743434734
 20
-22.015013191807096
 11
6.1543776196858317
 21
-21.600430499668786
  0
ARC
  8
_0-9_
  6
CONTINUOUS
 62
    7
 10
6.0000905963531324
 20
-21.857725881299924
 40
0.3
 50
89.998329108938208
 51
120.94611808112874
  0
LINE
  8
_0-9_
  6
CONTINUOUS
 62
    7
 10
5.1543675158930711
 20
-22.015013191807096
 11
5.8458210705507128
 21
-21.600430499668786
  0
ARC
  8
_0-9_
  6
CONTINUOUS
 62
    7
 10
5.0000979900906515
 20
-21.757717810175958
 40
0.3
 50
270.00167089106179
 51
300.94611808112876
  0
ARC
  8
_0-9_
  6
CONTINUOUS
 62
    7
 10
1.0001450625710078
 20
-21.757717810175958
 40
0.3
 50
239.0538819188713
 51
269.99832910893826
  0
ARC
  8
_0-9_
  6
CONTINUOUS
 62
    7
 10
7.0001154876209313
 20
-21.757717810175958
 40
0.3
 50
239.05388191887124
 51
269.99832910893821
  0
ARC
  8
_0-9_
  6
CONTINUOUS
 62
    7
 10
8.0001080938834122
 20
-21.857725881299924
 40
0.3
 50
59.053881918871248
 51
90.001670891061792
  0
LINE
  8
_0-9_
  6
CONTINUOUS
 62
    7
 10
8.8458311743434734
 20
-22.015013191807096
 11
8.1543776196858317
 21
-21.600430499668786
  0
ARC
  8
_0-9_
  6
CONTINUOUS
 62
    7
 10
8.0000905963531324
 20
-21.857725881299924
 40
0.3
 50
89.998329108938208
 51
120.94611808112874
  0
LINE
  8
_0-9_
  6
CONTINUOUS
 62
    7
 10
7.1543675158930711
 20
-22.015013191807096
 11
7.8458210705507128
 21
-21.600430499668786
  0
ARC
  8
_0-9_
  6
CONTINUOUS
 62
    7
 10
7.0000979900906515
 20
-21.757717810175958
 40
0.3
 50
270.00167089106179
 51
300.94611808112876
  0
ARC
  8
_0-9_
  6
CONTINUOUS
 62
    7
 10
9.0001154876209313
 20
-21.757717810175958
 40
0.3
 50
239.05388191887124
 51
269.99832910893821
  0
ARC
  8
_0-9_
  6
CONTINUOUS
 62
    7
 10
10.000108093883412
 20
-21.857725881299924
 40
0.3
 50
59.053881918871248
 51
90.001670891061792
  0
ARC
  8
_0-9_
  6
CONTINUOUS
 62
    7
 10
10.000090596353132
 20
-21.857725881299924
 40
0.3
 50
89.998329108938208
 51
120.94611808112874
  0
LINE
  8
_0-9_
  6
CONTINUOUS
 62
    7
 10
9.1543675158930711
 20
-22.015013191807096
 11
9.8458210705507128
 21
-21.600430499668786
  0
ARC
  8
_0-9_
  6
CONTINUOUS
 62
    7
 10
9.0000979900906515
 20
-21.757717810175958
 40
0.3
 50
270.00167089106179
 51
300.94611808112876
  0
LINE
  8
_0-9_
  6
CONTINUOUS
 62
    7
 10
10.845831174343473
 20
-22.015013191807096
 11
10.154377619685832
 21
-21.600430499668786
  0
ARC
  8
_0-9_
  6
CONTINUOUS
 62
    7
 10
-11.000089660583214
 20
-21.757717810175958
 40
0.3
 50
270
 51
300.94611808111915
  0
ARC
  8
_0-9_
  6
CONTINUOUS
 62
    7
 10
11.000100700145836
 20
-21.757717810175958
 40
0.3
 50
239.05388191888088
 51
270
  0
ARC
  8
_0-9_
  6
CONTINUOUS
 62
    7
 10
14.500005519780828
 20
24.942282189824059
 40
1.7999999999999998
 50
220.36124942452395
 51
270
  0
ARC
  8
_0-9_
  6
CONTINUOUS
 62
    7
 10
12.770183391646256
 20
23.472104317958756
 40
0.4701778718652968
 50
40.36124942452399
 51
180
  0
ARC
  8
_0-9_
  6
CONTINUOUS
 62
    7
 10
12.770183391646256
 20
26.412460061689362
 40
0.4701778718652963
 50
180
 51
319.63875057547608
  0
ARC
  8
_0-9_
  6
CONTINUOUS
 62
    7
 10
14.500005519780828
 20
24.942282189824059
 40
1.7999999999999998
 50
270
 51
293.00816749291675
  0
ARC
  8
_0-9_
  6
CONTINUOUS
 62
    7
 10
15.320816438310956
 20
23.009338984237875
 40
0.3
 50
55.581294388391505
 51
113.00816749291664
  0
ARC
  8
_0-9_
  6
CONTINUOUS
 62
    7
 10
15.773005519780966
 20
23.669282189824035
 40
0.5
 50
235.58129438839171
 51
34.418705611610676
  0
ARC
  8
_0-9_
  6
CONTINUOUS
 62
    7
 10
14.500005519780828
 20
24.942282189824059
 40
1.7999999999999998
 50
336.99183250708592
 51
12.266250610351529
  0
ARC
  8
_0-9_
  6
CONTINUOUS
 62
    7
 10
16.432948725367069
 20
24.121471271294073
 40
0.3
 50
156.99183250708617
 51
214.41870561161059
  0
ARC
  8
_0-9_
  6
CONTINUOUS
 62
    7
 10
14.500005519780828
 20
24.942282189824059
 40
1.7999999999999998
 50
12.266250610351568
 51
23.008167492914065
  0
ARC
  8
_0-9_
  6
CONTINUOUS
 62
    7
 10
16.432948725367069
 20
25.763093108354074
 40
0.3
 50
145.58129438838952
 51
203.00816749291386
  0
ARC
  8
_0-9_
  6
CONTINUOUS
 62
    7
 10
15.773005519780909
 20
26.215282189824084
 40
0.5
 50
325.58129438838944
 51
124.41870561160842
  0
ARC
  8
_0-9_
  6
CONTINUOUS
 62
    7
 10
14.500005519780828
 20
24.942282189824059
 40
1.7999999999999998
 50
66.991832507083458
 51
139.63875057547608
  0
ARC
  8
_0-9_
  6
CONTINUOUS
 62
    7
 10
15.320816438310956
 20
26.875225395410244
 40
0.3
 50
246.99183250708344
 51
304.41870561160863
  0
ARC
  8
_0-9_
  6
CONTINUOUS
 62
    7
 10
12.600005519780964
 20
22.458469326104169
 40
0.3
 50
180
 51
232.90239819868242
  0
LINE
  8
_0-9_
  6
CONTINUOUS
 62
    7
 10
12.300005519780953
 20
23.500760359519123
 11
12.300005519780953
 21
22.458469326104169
  0
LINE
  8
_0-9_
  6
CONTINUOUS
 62
    7
 10
18.500005519780942
 20
-21.757717810175958
 11
18.500005519781169
 21
35.142859913571876
  0
ARC
  8
_0-9_
  6
CONTINUOUS
 62
    7
 10
-18.199994480218308
 20
-21.757717810175958
 40
0.3
 50
180
 51
270
  0
ARC
  8
_0-9_
  6
CONTINUOUS
 62
    7
 10
18.20000551978093
 20
-21.757717810175958
 40
0.3
 50
270
 51
0
  0
LINE
  8
_0-9_
  6
CONTINUOUS
 62
    7
 10
-16.310067087473541
 20
30.642846439757339
 11
-16.900232868414875
 21
30.642846439757339
  0
ARC
  8
_0-9_
  6
CONTINUOUS
 62
    7
 10
-16.900232868414875
 20
30.34284643975727
 40
0.3
 50
90
 51
180
  0
ARC
  8
_0-9_
  6
CONTINUOUS
 62
    7
 10
-16.310067087473541
 20
31.142846439757339
 40
0.5
 50
270.00000000000006
 51
27.880907435181985
  0
LINE
  8
_0-9_
  6
CONTINUOUS
 62
    7
 10
-17.934818027701212
 20
35.283150501390288
 11
-15.868106333278362
 21
31.376664086121369
  0
ARC
  8
_0-9_
  6
CONTINUOUS
 62
    7
 10
-14.499994480218263
 20
24.942282189824059
 40
1.7999999999999998
 50
270
 51
319.63875057547608
  0
ARC
  8
_0-9_
  6
CONTINUOUS
 62
    7
 10
-12.770172352083634
 20
23.472104317958756
 40
0.4701778718652968
 50
0
 51
139.63875057547602
  0
ARC
  8
_0-9_
  6
CONTINUOUS
 62
    7
 10
-12.770172352083634
 20
26.412460061689362
 40
0.4701778718652963
 50
220.36124942452392
 51
0
  0
ARC
  8
_0-9_
  6
CONTINUOUS
 62
    7
 10
-14.499994480218263
 20
24.942282189824059
 40
1.7999999999999998
 50
246.99183250708325
 51
270
  0
ARC
  8
_0-9_
  6
CONTINUOUS
 62
    7
 10
-15.320805398748334
 20
23.009338984237875
 40
0.3
 50
66.991832507083359
 51
124.41870561160849
  0
ARC
  8
_0-9_
  6
CONTINUOUS
 62
    7
 10
-15.772994480218287
 20
23.669282189824035
 40
0.5
 50
145.58129438838932
 51
304.41870561160829
  0
ARC
  8
_0-9_
  6
CONTINUOUS
 62
    7
 10
-14.499994480218263
 20
24.942282189824059
 40
1.7999999999999998
 50
167.73374938964847
 51
203.00816749291405
  0
ARC
  8
_0-9_
  6
CONTINUOUS
 62
    7
 10
-16.432937685804447
 20
24.121471271294073
 40
0.3
 50
325.58129438838944
 51
23.00816749291382
  0
ARC
  8
_0-9_
  6
CONTINUOUS
 62
    7
 10
-14.499994480218263
 20
24.942282189824059
 40
1.7999999999999998
 50
156.99183250708595
 51
167.73374938964844
  0
ARC
  8
_0-9_
  6
CONTINUOUS
 62
    7
 10
-16.432937685804447
 20
25.763093108354074
 40
0.3
 50
336.99183250708614
 51
34.418705611610484
  0
ARC
  8
_0-9_
  6
CONTINUOUS
 62
    7
 10
-15.772994480218287
 20
26.215282189824084
 40
0.5
 50
55.581294388391591
 51
214.41870561161059
  0
ARC
  8
_0-9_
  6
CONTINUOUS
 62
    7
 10
-14.499994480218263
 20
24.942282189824059
 40
1.7999999999999998
 50
40.361249424523926
 51
113.00816749291656
  0
ARC
  8
_0-9_
  6
CONTINUOUS
 62
    7
 10
-15.320805398748334
 20
26.875225395410244
 40
0.3
 50
235.58129438839137
 51
293.00816749291653
  0
ARC
  8
_0-9_
  6
CONTINUOUS
 62
    7
 10
-12.599994480218342
 20
22.458469326104169
 40
0.3
 50
307.09760180131758
 51
0.0000000000000063
  0
LINE
  8
_0-9_
  6
CONTINUOUS
 62
    7
 10
-12.299994480218331
 20
23.500760359519123
 11
-12.299994480218331
 21
22.458469326104169
  0
ARC
  8
_0-9_
  6
CONTINUOUS
 62
    7
 10
-18.199994480218365
 20
35.142859913571876
 40
0.3
 50
27.88090743518222
 51
180
  0
LINE
  8
_0-9_
  6
CONTINUOUS
 62
    7
 10
-18.499994480218547
 20
35.142859913571876
 11
-18.499994480218263
 21
-21.757717810175958
  0
ARC
  8
_0-9_
  6
CONTINUOUS
 62
    7
 10
-12.00009705432079
 20
-21.857725881299924
 40
0.3
 50
89.998329108938208
 51
120.94611808112874
  0
ARC
  8
_0-9_
  6
CONTINUOUS
 62
    7
 10
-12.00007955679051
 20
-21.857725881299924
 40
0.3
 50
59.053881918871248
 51
90.001670891061792
  0
LINE
  8
_0-9_
  6
CONTINUOUS
 62
    7
 10
-11.154356476330449
 20
-22.015013191807096
 11
-11.84581003098809
 21
-21.600430499668786
  0
ARC
  8
_0-9_
  6
CONTINUOUS
 62
    7
 10
-11.000086950528029
 20
-21.757717810175958
 40
0.3
 50
239.05388191887124
 51
269.99832910893821
  0
LINE
  8
_0-9_
  6
CONTINUOUS
 62
    7
 10
-12.845820134780851
 20
-22.015013191807096
 11
-12.154366580123209
 21
-21.600430499668786
  0
ARC
  8
_0-9_
  6
CONTINUOUS
 62
    7
 10
-13.000089660583214
 20
-21.757717810175958
 40
0.3
 50
270
 51
300.94611808111915
  0
ARC
  8
_0-9_
  6
CONTINUOUS
 62
    7
 10
-14.00009705432079
 20
-21.857725881299924
 40
0.3
 50
89.998329108938208
 51
120.94611808112874
  0
ARC
  8
_0-9_
  6
CONTINUOUS
 62
    7
 10
-14.00007955679051
 20
-21.857725881299924
 40
0.3
 50
59.053881918871248
 51
90.001670891061792
  0
LINE
  8
_0-9_
  6
CONTINUOUS
 62
    7
 10
-13.154356476330449
 20
-22.015013191807096
 11
-13.84581003098809
 21
-21.600430499668786
  0
ARC
  8
_0-9_
  6
CONTINUOUS
 62
    7
 10
-13.000086950528029
 20
-21.757717810175958
 40
0.3
 50
239.05388191887124
 51
269.99832910893821
  0
LINE
  8
_0-9_
  6
CONTINUOUS
 62
    7
 10
-14.845820134780851
 20
-22.015013191807096
 11
-14.154366580123209
 21
-21.600430499668786
  0
ARC
  8
_0-9_
  6
CONTINUOUS
 62
    7
 10
-15.000089660583214
 20
-21.757717810175958
 40
0.3
 50
270
 51
300.94611808111915
  0
LINE
  8
_0-9_
  6
CONTINUOUS
 62
    7
 10
-18.199994480218308
 20
-22.057717810175912
 11
-15.000089660583214
 21
-22.057717810175912
  0
ARC
  8
_0-9_
  6
CONTINUOUS
 62
    7
 10
12.000108093883412
 20
-21.857725881299924
 40
0.3
 50
59.053881918871248
 51
90.001670891061792
  0
ARC
  8
_0-9_
  6
CONTINUOUS
 62
    7
 10
12.000090596353132
 20
-21.857725881299924
 40
0.3
 50
89.998329108938208
 51
120.94611808112874
  0
LINE
  8
_0-9_
  6
CONTINUOUS
 62
    7
 10
11.154367515893071
 20
-22.015013191807096
 11
11.845821070550713
 21
-21.600430499668786
  0
ARC
  8
_0-9_
  6
CONTINUOUS
 62
    7
 10
11.000097990090651
 20
-21.757717810175958
 40
0.3
 50
270.00167089106179
 51
300.94611808112876
  0
LINE
  8
_0-9_
  6
CONTINUOUS
 62
    7
 10
12.845831174343473
 20
-22.015013191807096
 11
12.154377619685832
 21
-21.600430499668786
  0
ARC
  8
_0-9_
  6
CONTINUOUS
 62
    7
 10
13.000100700145836
 20
-21.757717810175958
 40
0.3
 50
239.05388191888088
 51
270
  0
ARC
  8
_0-9_
  6
CONTINUOUS
 62
    7
 10
14.000108093883412
 20
-21.857725881299924
 40
0.3
 50
59.053881918871248
 51
90.001670891061792
  0
ARC
  8
_0-9_
  6
CONTINUOUS
 62
    7
 10
14.000090596353132
 20
-21.857725881299924
 40
0.3
 50
89.998329108938208
 51
120.94611808112874
  0
LINE
  8
_0-9_
  6
CONTINUOUS
 62
    7
 10
13.154367515893071
 20
-22.015013191807096
 11
13.845821070550713
 21
-21.600430499668786
  0
ARC
  8
_0-9_
  6
CONTINUOUS
 62
    7
 10
13.000097990090651
 20
-21.757717810175958
 40
0.3
 50
270.00167089106179
 51
300.94611808112876
  0
LINE
  8
_0-9_
  6
CONTINUOUS
 62
    7
 10
14.845831174343473
 20
-22.015013191807096
 11
14.154377619685832
 21
-21.600430499668786
  0
ARC
  8
_0-9_
  6
CONTINUOUS
 62
    7
 10
15.000100700145836
 20
-21.757717810175958
 40
0.3
 50
239.05388191888088
 51
270
  0
LINE
  8
_0-9_
  6
CONTINUOUS
 62
    7
 10
18.20000551978093
 20
-22.057717810175912
 11
15.000100700145836
 21
-22.057717810175912
  0
LINE
  8
_0-9_
  6
CONTINUOUS
 62
    7
 10
-14.564977238633944
 20
28.842949254288246
 11
-16.900232868414875
 21
28.842949254288246
  0
ARC
  8
_0-1_一般図
  6
CONTINUOUS
 62
    7
 10
-14.564977238633944
 20
28.542949254288246
 40
0.3
 50
65.556045219583467
 51
90
  0
LINE
  8
_0-1_一般図
  6
CONTINUOUS
 62
    7
 10
-12.475853596927976
 20
27.922885216429027
 11
-14.440836355343578
 21
28.816059197527029
  0
LINE
  8
_0-9_
  6
CONTINUOUS
 62
    7
 10
-12.299994480218331
 20
27.649775273190244
 11
-12.299994480218331
 21
26.412460061689362
  0
ARC
  8
_0-1_一般図
  6
CONTINUOUS
 62
    7
 10
-12.599994480218328
 20
27.649775273190244
 40
0.3
 50
0
 51
65.556045219583439
  0
LINE
  8
_0-1_一般図
  6
CONTINUOUS
 62
    7
 10
12.475864636490556
 20
27.922885216428909
 11
14.440847394906157
 21
28.816059197526911
  0
ARC
  8
_0-1_一般図
  6
CONTINUOUS
 62
    7
 10
14.564988278196523
 20
28.542949254288128
 40
0.3
 50
90
 51
114.44395478041653
  0
LINE
  8
_0-9_
  6
CONTINUOUS
 62
    7
 10
14.564988278196523
 20
28.842949254288246
 11
16.900243907977554
 21
28.842949254288246
  0
ARC
  8
_0-1_一般図
  6
CONTINUOUS
 62
    7
 10
12.600005519780908
 20
27.649775273190127
 40
0.3
 50
114.44395478041656
 51
180
  0
LINE
  8
_0-9_
  6
CONTINUOUS
 62
    7
 10
12.300005519780953
 20
27.649775273190127
 11
12.300005519780953
 21
26.412460061689362
  0
ARC
  8
_0-9_
  6
CONTINUOUS
 62
    7
 10
-14.499994480218263
 20
24.970938231384427
 40
3.4499999999999997
 50
253.0141914221374
 51
307.0976018013173
  0
ARC
  8
_0-1_一般図
  6
CONTINUOUS
 62
    7
 10
-15.799994480218473
 20
20.715059943651152
 40
1
 50
73.014191422137742
 51
180.0000000000004
  0
ARC
  8
_0-9_
  6
CONTINUOUS
 62
    7
 10
14.500005519780828
 20
24.970938231384427
 40
3.4499999999999997
 50
232.9023981986827
 51
286.98580857786357
  0
ARC
  8
_0-1_一般図
  6
CONTINUOUS
 62
    7
 10
15.800005519781109
 20
20.71505994365118
 40
1
 50
359.9999999999996
 51
106.98580857786386
  0
LINE
  8
_0-9_
  6
CONTINUOUS
 62
    7
 10
-11.799994480218302
 20
-19.057724526272235
 11
-0.5197566590165791
 21
-19.057724526272235
  0
LINE
  8
_0-1_一般図
  6
CONTINUOUS
 62
    7
 10
-16.799994480218302
 20
-14.05772452627226
 11
-16.799994480218473
 21
20.715059943651145
  0
ARC
  8
_0-1_一般図
  6
CONTINUOUS
 62
    7
 10
-11.799994480218302
 20
-14.057724526272235
 40
5
 50
180.00000000000031
 51
270
  0
LINE
  8
_0-9_
  6
CONTINUOUS
 62
    7
 10
11.800005519780967
 20
-19.057724526272235
 11
0.5197676985792014
 21
-19.057724526272235
  0
LINE
  8
_0-1_一般図
  6
CONTINUOUS
 62
    7
 10
16.800005519780967
 20
-14.057724526272256
 11
16.800005519781109
 21
20.715059943651173
  0
ARC
  8
_0-1_一般図
  6
CONTINUOUS
 62
    7
 10
11.800005519780967
 20
-14.057724526272235
 40
5
 50
270
 51
359.99999999999977
  0
ARC
  8
_0-9_
  6
CONTINUOUS
 62
    7
 10
-16.900232868414875
 20
29.142949254288229
 40
0.3
 50
180
 51
270
  0
LINE
  8
_0-9_
  6
CONTINUOUS
 62
    7
 10
-17.200232868414943
 20
29.142949254288229
 11
-17.200232868414943
 21
30.34284643975727
  0
ARC
  8
_0-9_
  6
CONTINUOUS
 62
    7
 10
16.900243907977554
 20
29.142949254288229
 40
0.3
 50
270
 51
0
  0
LINE
  8
_0-9_
  6
CONTINUOUS
 62
    7
 10
17.200243907977509
 20
29.142949254288229
 11
17.200243907977509
 21
30.34284643975727
  0
LINE
  8
_0-1_一般図
  6
DASHED1
 62
    3
 10
10.000005519781297
 20
-19.057724526272235
 11
10.000005519781297
 21
-21.557725893363298
  0
LINE
  8
_0-1_一般図
  6
DASHED1
 62
    3
 10
-9.9999944802187031
 20
-19.057724526272235
 11
-9.9999944802187031
 21
-21.557725881427491
  0
LINE
  8
_0-1_一般図
  6
DASHED1
 62
    3
 10
-18.499994480218454
 20
16.942282189824084
 11
-16.799994480218455
 21
16.942282189824084
  0
LINE
  8
_0-1_一般図
  6
DASHED1
 62
    3
 10
-18.499994480218305
 20
-13.057717810175916
 11
-16.799994480218306
 21
-13.057717810175916
  0
LINE
  8
_0-1_一般図
  6
DASHED1
 62
    3
 10
18.500005519780977
 20
-13.057717810175916
 11
16.8000055197809
 21
-13.057717810175916
  0
LINE
  8
_0-1_一般図
  6
DASHED1
 62
    3
 10
18.500005519781098
 20
16.942282189824084
 11
16.800005519781049
 21
16.942282189824084
  0
ENDBLK
  0
BLOCK
  2
-003-SRB-M8x50
 70
   64
 10
0
 20
0
 30
0
  0
LINE
  8
_0-1_一般図
  6
DASHED1
 62
    5
 10
-31.032514305570714
 20
-3.6198486163922752
 11
-31.732514305571897
 21
-3.8074130510942013
  0
LINE
  8
_0-1_一般図
  6
DASHED1
 62
    5
 10
-31.032514305570942
 20
4.0050225142038727
 11
-31.732514305571897
 21
4.1925869489060261
  0
LINE
  8
_0-1_一般図
  6
DASHED1
 62
    3
 10
-31.732514305570987
 20
4.1925869489060261
 11
-31.732514305570987
 21
-3.8074130510939739
  0
LINE
  8
_0-1_一般図
  6
DASHED1
 62
    3
 10
-35.732514305571442
 20
-3.8074130510939739
 11
-31.032514305571169
 21
-3.8074130510939739
  0
LINE
  8
_0-1_一般図
  6
DASHED1
 62
    3
 10
-35.732514305571442
 20
4.1925869489060261
 11
-31.032514305571169
 21
4.1925869489060261
  0
LINE
  8
_0-1_一般図
  6
DASHED1
 62
    3
 10
2.5674856944287399
 20
-3.8074130510939739
 11
7.267485694428558
 21
-3.8074130510939739
  0
LINE
  8
_0-1_一般図
  6
DASHED1
 62
    3
 10
2.5674856944287399
 20
4.1925869489060261
 11
7.267485694428558
 21
4.1925869489060261
  0
LINE
  8
_0-1_一般図
  6
CONTINUOUS
 62
    7
 10
14.167485694428876
 20
-3.5601898008266488
 11
9.6674856944288763
 21
-3.5601898008266488
  0
ARC
  8
_0-1_一般図
  6
CONTINUOUS
 62
    7
 10
7.6258190277621338
 20
0.1925869489057987
 40
7.5416666666666767
 50
330.15827583531564
 51
29.841724164684361
  0
LINE
  8
_0-1_一般図
  6
CONTINUOUS
 62
    7
 10
14.167485694428876
 20
3.9453636986384737
 11
9.6674856944288763
 21
3.9453636986384737
  0
LINE
  8
_0-1_一般図
  6
CONTINUOUS
 62
    7
 10
14.167485694428876
 20
-3.5601898008266488
 11
9.6674856944288763
 21
-3.5601898008266488
  0
ARC
  8
_0-1_一般図
  6
CONTINUOUS
 62
    7
 10
7.6258190277621338
 20
0.1925869489057987
 40
7.5416666666666767
 50
330.15827583531564
 51
29.841724164684361
  0
LINE
  8
_0-1_一般図
  6
CONTINUOUS
 62
    7
 10
14.167485694428876
 20
3.9453636986384737
 11
9.6674856944288763
 21
3.9453636986384737
  0
LINE
  8
_0-1_一般図
  6
CONTINUOUS
 62
    7
 10
14.167485694428876
 20
-3.5601898008266488
 11
9.6674856944288763
 21
-3.5601898008266488
  0
ARC
  8
_0-1_一般図
  6
CONTINUOUS
 62
    7
 10
7.6258190277621338
 20
0.1925869489057987
 40
7.5416666666666767
 50
330.15827583531564
 51
29.841724164684361
  0
LINE
  8
_0-1_一般図
  6
CONTINUOUS
 62
    7
 10
14.167485694428876
 20
3.9453636986384737
 11
9.6674856944288763
 21
3.9453636986384737
  0
LINE
  8
_0-1_一般図
  6
CONTINUOUS
 62
    7
 10
14.167485694428876
 20
-3.5601898008266488
 11
9.6674856944288763
 21
-3.5601898008266488
  0
ARC
  8
_0-1_一般図
  6
CONTINUOUS
 62
    7
 10
7.6258190277621338
 20
0.1925869489057987
 40
7.5416666666666767
 50
330.15827583531564
 51
29.841724164684361
  0
LINE
  8
_0-1_一般図
  6
CONTINUOUS
 62
    7
 10
14.167485694428876
 20
3.9453636986384737
 11
9.6674856944288763
 21
3.9453636986384737
  0
LINE
  8
_0-1_一般図
  6
CONTINUOUS
 62
    7
 10
-29.399982550841344
 20
4.1925869489060261
 11
-29.399982550841344
 21
-3.8074130510939739
  0
ARC
  8
_0-1_一般図
  6
CONTINUOUS
 62
    7
 10
3.5235740936522575
 20
5.8217520735048112
 40
6.01805555555514
 50
341.83267392811695
 51
18.167326071882439
  0
ARC
  8
_0-1_一般図
  6
CONTINUOUS
 62
    7
 10
3.5235740936522575
 20
-5.4365781756929863
 40
6.01805555555514
 50
341.83267392811757
 51
18.167326071883032
  0
ARC
  8
_0-1_一般図
  6
CONTINUOUS
 62
    7
 10
-14.080592573013803
 20
0.1925869489057987
 40
23.622222222221339
 50
350.85889745137644
 51
9.1411025486235555
  0
LINE
  8
_0-1_一般図
  6
CONTINUOUS
 62
    7
 10
14.167485694428876
 20
-3.5601898008266488
 11
9.2416296492073684
 21
-3.5601898008266488
  0
LINE
  8
_0-1_一般図
  6
CONTINUOUS
 62
    7
 10
14.167485694428876
 20
3.9453636986384737
 11
9.2416296492073684
 21
3.9453636986384737
  0
LINE
  8
_0-1_一般図
  6
CONTINUOUS
 62
    7
 10
14.167485694428876
 20
-7.3129665505593238
 11
9.2416296492073684
 21
-7.3129665505593238
  0
LINE
  8
_0-1_一般図
  6
CONTINUOUS
 62
    7
 10
8.6674856944288763
 20
-8.3074130510942013
 11
9.2416296492073684
 21
-7.3129665505593238
  0
LINE
  8
_0-1_一般図
  6
CONTINUOUS
 62
    7
 10
14.167485694428876
 20
7.6981404483709213
 11
9.2416296492073684
 21
7.6981404483709213
  0
LINE
  8
_0-1_一般図
  6
CONTINUOUS
 62
    7
 10
8.6674856944288763
 20
8.6925869489057987
 11
9.2416296492073684
 21
7.6981404483709213
  0
LINE
  8
_0-1_一般図
  6
CONTINUOUS
 62
    7
 10
-31.032514305571169
 20
-3.8074130510939739
 11
2.5674856944287399
 21
-3.8074130510939739
  0
LINE
  8
_0-1_一般図
  6
CONTINUOUS
 62
    7
 10
-31.032514305571169
 20
4.1925869489060261
 11
2.5674856944287399
 21
4.1925869489060261
  0
LINE
  8
_0-1_一般図
  6
CONTINUOUS
 62
    7
 10
15.167485694428876
 20
6.6981404483711486
 11
15.167485694428876
 21
-6.3129665505593238
  0
ARC
  8
_0-1_一般図
  6
CONTINUOUS
 62
    7
 10
15.667485694429104
 20
-6.052411049492477
 40
0.5
 50
92.292442775956204
 51
180
  0
ARC
  8
_0-1_一般図
  6
CONTINUOUS
 62
    7
 10
15.417485694428876
 20
0.1925869489057987
 40
5.75
 50
272.29244277595592
 51
92.491906368979969
  0
ARC
  8
_0-1_一般図
  6
CONTINUOUS
 62
    7
 10
15.667485694429104
 20
6.4375849473043019
 40
0.5
 50
180
 51
267.7075572240438
  0
ARC
  8
_0-1_一般図
  6
CONTINUOUS
 62
    7
 10
12.907069027762134
 20
5.8217520735048112
 40
2.2604166666666523
 50
303.89023816900772
 51
33.890238169010438
  0
LINE
  8
_0-1_一般図
  6
CONTINUOUS
 62
    7
 10
14.167485694428876
 20
7.6981404483709213
 11
15.167485694428876
 21
6.6981404483711486
  0
ARC
  8
_0-1_一般図
  6
CONTINUOUS
 62
    7
 10
12.907069027762134
 20
-5.4365781756929863
 40
2.2604166666666523
 50
326.10976183098956
 51
56.109761830992277
  0
LINE
  8
_0-1_一般図
  6
CONTINUOUS
 62
    7
 10
14.167485694428876
 20
-7.3129665505593238
 11
15.167485694428876
 21
-6.3129665505593238
  0
ARC
  8
_0-1_一般図
  6
CONTINUOUS
 62
    7
 10
7.6258190277621338
 20
0.1925869489057987
 40
7.5416666666666767
 50
330.15827583531564
 51
29.841724164684361
  0
LINE
  8
_0-1_一般図
  6
CONTINUOUS
 62
    7
 10
8.6674856944288763
 20
8.6925869489057987
 11
7.2674856944290127
 21
8.6925869489057987
  0
LINE
  8
_0-1_一般図
  6
CONTINUOUS
 62
    7
 10
8.6674856944288763
 20
-8.3074130510942013
 11
7.2674856944290127
 21
-8.3074130510942013
  0
LINE
  8
_0-1_一般図
  6
CONTINUOUS
 62
    7
 10
8.6674856944288763
 20
8.6925869489057987
 11
8.6674856944288763
 21
-8.3074130510942013
  0
LINE
  8
_0-1_一般図
  6
CONTINUOUS
 62
    7
 10
14.167485694428876
 20
3.9453636986384737
 11
9.6674856944288763
 21
3.9453636986384737
  0
ARC
  8
_0-1_一般図
  6
CONTINUOUS
 62
    7
 10
7.6258190277621338
 20
0.1925869489057987
 40
7.5416666666666767
 50
330.15827583531564
 51
29.841724164684361
  0
LINE
  8
_0-1_一般図
  6
CONTINUOUS
 62
    7
 10
14.167485694428876
 20
-3.5601898008266488
 11
9.6674856944288763
 21
-3.5601898008266488
  0
LINE
  8
_0-1_一般図
  6
CONTINUOUS
 62
    2
 10
-29.399982550841344
 20
3.5675869489060261
 11
-31.032514305570942
 21
4.0050225142038727
  0
LINE
  8
_0-1_一般図
  6
CONTINUOUS
 62
    2
 10
-29.399982550841344
 20
3.5675869489060261
 11
2.5674856944287399
 21
3.5675869489060261
  0
LINE
  8
_0-1_一般図
  6
CONTINUOUS
 62
    2
 10
-29.399982550841344
 20
-3.1824130510942013
 11
-31.032514305570714
 21
-3.6198486163922752
  0
LINE
  8
_0-1_一般図
  6
CONTINUOUS
 62
    2
 10
-29.399982550841344
 20
-3.1824130510939739
 11
2.5674856944287399
 21
-3.1824130510939739
  0
LINE
  8
_0-1_一般図
  6
DASHED1
 62
    5
 10
2.5674856944287967
 20
3.5675869489060261
 11
7.267485694428558
 21
3.5675869489060261
  0
LINE
  8
_0-1_一般図
  6
DASHED1
 62
    5
 10
2.5674856944287683
 20
-3.1824130510939739
 11
7.267485694428558
 21
-3.1824130510939739
  0
ARC
  8
_0-1_一般図
  6
CONTINUOUS
 62
    7
 10
-36.032514305570984
 20
-8.507413051094197
 40
0.3
 50
222.69157329817966
 51
0
  0
LINE
  8
_0-1_一般図
  6
CONTINUOUS
 62
    7
 10
-35.732514305570987
 20
8.8925869489057945
 11
-35.732514305570987
 21
-8.507413051094197
  0
ARC
  8
_0-1_一般図
  6
CONTINUOUS
 62
    7
 10
-36.032514305570984
 20
8.8925869489057945
 40
0.3
 50
0
 51
137.30842670182034
  0
ARC
  8
_0-1_一般図
  6
CONTINUOUS
 62
    7
 10
-26.601631952629834
 20
0.1925869489057987
 40
13.130882352941153
 50
137.30842670182039
 51
222.69157329817955
  0
ENDBLK
  0
ENDSEC
  0
SECTION
  2
ENTITIES
  0
LINE
  8
ADD_LINE
  6
DOT
 62
    9
 10
269.33692519729209
 20
25
 11
269.33692519729209
 21
12.5
  0
LINE
  8
ADD_LINE
  6
DOT
 62
    9
 10
289.33692519729209
 20
25
 11
289.33692519729209
 21
12.5
  0
LINE
  8
ADD_LINE
  6
DOT
 62
    9
 10
410.25538779593808
 20
25
 11
410.25538779593808
 21
12.5
  0
TEXT
  8
_0-a_
 62
    3
 10
276.08692519729209
 20
16.25
 40
5
 41
0.8
 50
0
  1
1/1
  0
LINE
  8
ADD_LINE
  6
DOT
 62
    9
 10
30.270532753964858
 20
25
 11
410.25538779593808
 21
25
  0
LINE
  8
ADD_LINE
  6
DOT
 62
    9
 10
30.270532753964858
 20
12.5
 11
410.25538779593808
 21
12.5
  0
LINE
  8
ADD_LINE
  6
DOT
 62
    9
 10
30.270532795938095
 20
25
 11
30.270532795938095
 21
12.5
  0
TEXT
  8
_f-a_
 62
    7
 10
274.33692519729209
 20
25
 40
3
 41
0.8333333333333333
 50
0
  1
縮　　尺
  0
TEXT
  8
_f-a_
 62
    7
 10
144.80372899661506
 20
25
 40
3
 41
0.8333333333333333
 50
0
  1
名　　称
  0
TEXT
  8
_f-a_
 62
    7
 10
344.79615649661508
 20
25
 40
3
 41
0.8333333333333333
 50
0
  1
品　　番
  0
TEXT
  8
_0-a_
 62
    3
 10
116.30372897562847
 20
16.25
 40
5
 41
0.8
 50
0
  1
防犯用雨とい　バンドレス丸とい
  0
TEXT
  8
_0-a_
 62
    3
 10
340.92115649661508
 20
16.25
 40
5
 41
0.8
 50
0
  1
MBA-60-1
  0
CIRCLE
  8
_0-1_一般図
  6
CONTINUOUS
 62
    7
 10
188.36048268419697
 20
169.67453860000001
 40
9.0000000000002132
  0
ARC
  8
_0-1_一般図
  6
DASHED1
 62
    3
 10
188.36048268419697
 20
188.97453860000002
 40
4.200000000000002
 50
0
 51
180
  0
ARC
  8
_0-1_一般図
  6
DASHED1
 62
    3
 10
188.36048268419697
 20
167.37453859999999
 40
4.200000000000002
 50
180
 51
0
  0
LINE
  8
_0-1_一般図
  6
DASHED1
 62
    3
 10
192.56048268419696
 20
188.97453860000002
 11
192.56048268419696
 21
167.37453859999999
  0
LINE
  8
_0-1_一般図
  6
DASHED1
 62
    3
 10
184.16048268419695
 20
188.97453860000002
 11
184.16048268419695
 21
167.37453859999999
  0
LINE
  8
_0-1_一般図
  6
CENTER1
 62
    4
 10
176.20896161624833
 20
169.67453860000001
 11
199.79691227596442
 21
169.67453860000001
  0
LINE
  8
_0-1_一般図
  6
CENTER1
 62
    4
 10
188.36048268419697
 20
195.41329959426119
 11
188.36048268419697
 21
156.57683896466216
  0
CIRCLE
  8
_0-1_一般図
  6
DASHED1
 62
    3
 10
188.36048268419697
 20
169.67453860000001
 40
6
  0
CIRCLE
  8
_0-1_一般図
  6
DASHED1
 62
    3
 10
299.36048268419694
 20
169.67453860000001
 40
6
  0
LINE
  8
_0-1_一般図
  6
CENTER1
 62
    4
 10
299.36048268419694
 20
195.41329959426119
 11
299.36048268419694
 21
156.57683896466216
  0
LINE
  8
_0-1_一般図
  6
CENTER1
 62
    4
 10
287.2089616162483
 20
169.67453860000001
 11
310.79691227596442
 21
169.67453860000001
  0
LINE
  8
_0-1_一般図
  6
DASHED1
 62
    3
 10
295.16048268419695
 20
188.97453860000002
 11
295.16048268419695
 21
167.37453859999999
  0
LINE
  8
_0-1_一般図
  6
DASHED1
 62
    3
 10
303.56048268419693
 20
188.97453860000002
 11
303.56048268419693
 21
167.37453859999999
  0
ARC
  8
_0-1_一般図
  6
DASHED1
 62
    3
 10
299.36048268419694
 20
167.37453859999999
 40
4.200000000000002
 50
180
 51
0
  0
ARC
  8
_0-1_一般図
  6
DASHED1
 62
    3
 10
299.36048268419694
 20
188.97453860000002
 40
4.200000000000002
 50
0
 51
180
  0
CIRCLE
  8
_0-1_一般図
  6
CONTINUOUS
 62
    7
 10
299.36048268419694
 20
169.67453860000001
 40
9.0000000000002132
  0
LINE
  8
_0-1_一般図
  6
CONTINUOUS
 62
    7
 10
329.36048268419694
 20
150.5
 11
333.09265580777043
 21
150.5
  0
POINT
  8
_0-9_
 62
    4
 10
46.639517311567573
 20
78.500000000000085
  0
POINT
  8
_0-9_
 62
    4
 10
106.63951731156737
 20
78.500000000000085
  0
LINE
  8
_0-9_
  6
CONTINUOUS
 62
    4
 10
46.639517311567573
 20
77.500000000000085
 11
46.639517311567573
 21
119.5
  0
LINE
  8
_0-9_
  6
CONTINUOUS
 62
    4
 10
106.63951731156737
 20
77.500000000000085
 11
106.63951731156737
 21
119.5
  0
LINE
  8
_0-1_一般図
  6
CONTINUOUS
 62
    7
 10
158.36048268419694
 20
90.5
 11
243.82310943215754
 21
90.5
  0
LINE
  8
_0-9_
  6
CONTINUOUS
 62
    4
 10
46.639517311567573
 20
78.500000000000085
 11
106.63951731156737
 21
78.500000000000085
  0
TEXT
  8
_0-9_
 62
    3
 10
72.264517311567488
 20
79.000000000000085
 40
5
 41
0.8
 50
0
  1
φ60
  0
INSERT
  2
-000-ATN-60
  8
_0-1_一般図
 10
76.639517311567317
 20
143.94742594710942
 41
1
 42
1
 50
180
  0
LINE
  8
_0-1_一般図
  6
CONTINUOUS
 62
    7
 10
373.61465463034131
 20
149
 11
338.36048268419694
 21
149
  0
ARC
  8
_0-1_一般図
  6
CONTINUOUS
 62
    7
 10
373.61465463034131
 20
139
 40
10
 50
81.469234390051867
 51
90
  0
LINE
  8
_0-1_一般図
  6
CONTINUOUS
 62
    7
 10
373.61465463034131
 20
92.000000000000028
 11
338.36048268419688
 21
92.000000000000028
  0
ARC
  8
_0-1_一般図
  6
CONTINUOUS
 62
    7
 10
373.61465463034125
 20
101.99999999999997
 40
10
 50
270
 51
278.53076560994816
  0
LINE
  8
_0-1_一般図
  6
CONTINUOUS
 62
    7
 10
375.09805915964375
 20
148.88936352868296
 11
379.36048268419688
 21
148.25000000000003
  0
LINE
  8
_0-1_一般図
  6
CONTINUOUS
 62
    7
 10
379.36048268419694
 20
148.25
 11
379.36048268419694
 21
92.750000000000057
  0
LINE
  8
_0-1_一般図
  6
CONTINUOUS
 62
    7
 10
375.09805915964375
 20
92.110636471317022
 11
379.360482684197
 21
92.750000000000028
  0
LINE
  8
_0-1_一般図
  6
CONTINUOUS
 62
    5
 10
338.36048268419694
 20
148.19488091225247
 11
338.36048268419694
 21
92.646470318683043
  0
LINE
  8
_0-1_一般図
  6
CONTINUOUS
 62
    5
 10
374.36048268419688
 20
147.92193057734295
 11
374.36048268419688
 21
92.903630824030643
  0
ARC
  8
_0-1_一般図
  6
CONTINUOUS
 62
    7
 10
333.09265580777048
 20
100.49999999999996
 40
10
 50
270
 51
301.7883306170516
  0
LINE
  8
_0-1_一般図
  6
CONTINUOUS
 62
    7
 10
252.73888227169789
 20
90.5
 11
333.09265580777048
 21
90.5
  0
ARC
  8
_0-1_一般図
  6
CONTINUOUS
 62
    7
 10
333.09265580777043
 20
140.5
 40
10
 50
58.211669382948379
 51
90
  0
POINT
  8
_0-9_
 62
    4
 10
118.63951731156746
 20
90.5
  0
LINE
  8
_0-9_
  6
CONTINUOUS
 62
    4
 10
119.63951731156746
 20
90.5
 11
77.639517311567488
 21
90.5
  0
LINE
  8
_0-1_一般図
  6
CENTER1
 62
    4
 10
41.841701200641609
 20
120.5
 11
110.79146001640316
 21
120.5
  0
LINE
  8
_0-1_一般図
  6
CENTER1
 62
    4
 10
152.18619198792805
 20
120.5
 11
384.6537313432836
 21
120.5
  0
INSERT
  2
-003-SRB-M8x50
  8
_0-1_一般図
 10
62.407003005996501
 20
169.86712551245387
 41
1
 42
1
 50
180
  0
INSERT
  2
-002-M-A-1
  8
_0-1_一般図
 10
76.639522831348785
 20
180.11682075337194
 41
1
 42
1
 50
180
  0
LINE
  8
_0-1_一般図
  6
CENTER1
 62
    4
 10
105.54399383550154
 20
169.67453856354786
 11
38.265199480468823
 21
169.67453856354786
  0
POINT
  8
_0-9_
 62
    4
 10
118.63951731156746
 20
150.5
  0
LINE
  8
_0-9_
  6
CONTINUOUS
 62
    4
 10
118.63951731156746
 20
90.5
 11
118.63951731156746
 21
150.5
  0
TEXT
  8
_0-9_
 62
    3
 10
118.13951731156746
 20
118.375
 40
5
 41
0.8
 50
90
  1
60
  0
LINE
  8
_0-9_
  6
CONTINUOUS
 62
    4
 10
119.63951731156746
 20
150.5
 11
77.639517311567488
 21
150.5
  0
LINE
  8
_0-1_一般図
  6
CENTER1
 62
    4
 10
76.639517311567488
 20
208.86755243609906
 11
76.639517311567488
 21
85.33259924682929
  0
POINT
  8
_0-9_
 62
    4
 10
118.63951731156746
 20
150.5
  0
POINT
  8
_0-9_
 62
    4
 10
118.63951731156746
 20
207.17453856354786
  0
LINE
  8
_0-9_
  6
CONTINUOUS
 62
    4
 10
119.63951731156746
 20
207.17453856354786
 11
99.039517311567494
 21
207.17453856354786
  0
POINT
  8
_0-9_
 62
    4
 10
55.139517311567488
 20
215.17453856354786
  0
POINT
  8
_0-9_
 62
    4
 10
98.139517311567488
 20
215.17453856354786
  0
LINE
  8
_0-9_
  6
CONTINUOUS
 62
    4
 10
55.139517311567488
 20
216.17453856354786
 11
55.139517311567488
 21
208.07453856354783
  0
LINE
  8
_0-9_
  6
CONTINUOUS
 62
    4
 10
98.139517311567488
 20
216.17453856354786
 11
98.139517311567488
 21
208.07453856354783
  0
LINE
  8
_0-9_
  6
CONTINUOUS
 62
    4
 10
55.139517311567488
 20
215.17453856354786
 11
98.139517311567488
 21
215.17453856354786
  0
TEXT
  8
_0-9_
 62
    3
 10
74.514517311567488
 20
215.67453856354786
 40
5
 41
0.8
 50
0
  1
43
  0
POINT
  8
_0-9_
 62
    4
 10
158.36048268419694
 20
78.500000000000085
  0
POINT
  8
_0-9_
 62
    4
 10
338.360482684197
 20
78.500000000000085
  0
LINE
  8
_0-9_
  6
CONTINUOUS
 62
    4
 10
158.36048268419694
 20
77.500000000000085
 11
158.36048268419694
 21
89.5
  0
LINE
  8
_0-9_
  6
CONTINUOUS
 62
    4
 10
338.360482684197
 20
77.500000000000085
 11
338.360482684197
 21
91.000000000000028
  0
POINT
  8
_0-9_
 62
    4
 10
379.360482684197
 20
78.500000000000085
  0
LINE
  8
_0-9_
  6
CONTINUOUS
 62
    4
 10
379.360482684197
 20
77.500000000000085
 11
379.360482684197
 21
91.750000000000028
  0
LINE
  8
_0-9_
  6
CONTINUOUS
 62
    4
 10
338.360482684197
 20
78.500000000000085
 11
379.360482684197
 21
78.500000000000085
  0
TEXT
  8
_0-9_
 62
    3
 10
356.735482684197
 20
79.000000000000085
 40
5
 41
0.8
 50
0
  1
41
  0
LINE
  8
_0-1_一般図
  6
CONTINUOUS
 62
    7
 10
252.73888227169789
 20
207.17453860000001
 11
329.36048268419694
 21
207.17453860000001
  0
LINE
  8
_0-1_一般図
  6
CONTINUOUS
 62
    7
 10
158.36048268419694
 20
144.57453855999998
 11
243.82310943215754
 21
144.57453855999998
  0
LINE
  8
_0-1_一般図
  6
CONTINUOUS
 62
    7
 10
252.73888227169789
 20
144.57453855999998
 11
329.36048268419694
 21
144.57453855999998
  0
LINE
  8
_0-1_一般図
  6
CONTINUOUS
 62
    7
 10
158.36048268419694
 20
207.17453860000001
 11
158.36048268419694
 21
90.5
  0
LINE
  8
_0-1_一般図
  6
CONTINUOUS
 62
    7
 10
158.36048268419694
 20
207.17453860000001
 11
243.82310943215754
 21
207.17453860000001
  0
LINE
  8
_0-1_一般図
  6
CONTINUOUS
 62
    7
 10
329.36048268419694
 20
207.17453860000001
 11
329.36048268419694
 21
144.57453855999998
  0
LINE
  8
_0-1_一般図
  6
DASHED1
 62
    3
 10
158.36048268419694
 20
202.17453856399999
 11
243.82310943215754
 21
202.17453856399999
  0
LINE
  8
_0-1_一般図
  6
DASHED1
 62
    3
 10
252.73888227169789
 20
202.17453856399999
 11
329.36048268419694
 21
202.17453856399999
  0
LINE
  8
_0-1_一般図
  6
DASHED1
 62
    3
 10
329.36048268419694
 20
150.5
 11
252.73888227169789
 21
150.5
  0
LINE
  8
_0-1_一般図
  6
DASHED1
 62
    3
 10
243.82310943215754
 20
150.5
 11
158.36048268419694
 21
150.5
  0
POINT
  8
_0-9_
 62
    4
 10
158.36048268419694
 20
215.17453856354786
  0
POINT
  8
_0-9_
 62
    4
 10
329.36048268419694
 20
215.17453856354786
  0
LINE
  8
_0-9_
  6
CONTINUOUS
 62
    4
 10
158.36048268419694
 20
216.17453856354786
 11
158.36048268419694
 21
208.17453860000001
  0
LINE
  8
_0-9_
  6
CONTINUOUS
 62
    4
 10
329.36048268419694
 20
216.17453856354786
 11
329.36048268419694
 21
208.17453860000001
  0
LINE
  8
_0-9_
  6
CONTINUOUS
 62
    4
 10
158.36048268419694
 20
78.500000000000085
 11
338.360482684197
 21
78.500000000000085
  0
LINE
  8
_0-9_
  6
CONTINUOUS
 62
    4
 10
158.36048268419694
 20
215.17453856354786
 11
329.36048268419694
 21
215.17453856354786
  0
LINE
  8
_0-9_
  6
CONTINUOUS
 62
    4
 10
118.63951731156746
 20
150.5
 11
118.63951731156746
 21
207.17453856354786
  0
TEXT
  8
_0-9_
 62
    3
 10
237.235482684197
 20
79.000000000000085
 40
5
 41
0.8
 50
0
  1
2900・3900
  0
TEXT
  8
_0-9_
 62
    3
 10
232.73548268419694
 20
215.67453856354786
 40
5
 41
0.8
 50
0
  1
2891・3891
  0
TEXT
  8
_0-9_
 62
    3
 10
118.13951731156746
 20
172.21226928177393
 40
5
 41
0.8
 50
90
  1
60～77
  0
POINT
  8
_0-9_
 62
    4
 10
102.53375736988592
 20
132.87652141186828
  0
POINT
  8
_0-9_
 62
    4
 10
103.70666773840502
 20
133.4371306539764
  0
LINE
  8
_0-9_
  6
CONTINUOUS
 62
    4
 10
102.10251967696688
 20
133.77875976851573
 11
102.10252030896005
 21
133.77875844625544
  0
LINE
  8
_0-9_
  6
CONTINUOUS
 62
    4
 10
103.27543004548598
 20
134.33936901062384
 11
103.2754310460341
 21
134.33936691727041
  0
LINE
  8
_0-9_
  6
CONTINUOUS
 62
    4
 10
102.53375736988592
 20
132.87652141186828
 11
103.70666773840502
 21
133.4371306539764
  0
TEXT
  8
_0-9_
 62
    3
 10
105.18650198152665
 20
134.69861582197078
 40
5
 41
0.8
 50
25.546132915550483
  1
1.3
  0
POINT
  8
_0-9_
 62
    4
 10
50.745277553710196
 20
108.12347872512447
  0
POINT
  8
_0-9_
 62
    4
 10
102.53375736988592
 20
132.87652141186828
  0
LINE
  8
_0-9_
  6
CONTINUOUS
 62
    4
 10
50.314039860791155
 20
109.02571708177192
 11
50.314040381087295
 21
109.02571599320488
  0
LINE
  8
_0-9_
  6
CONTINUOUS
 62
    4
 10
50.745277553710167
 20
108.12347872512451
 11
102.53375736988593
 21
132.87652141186823
  0
TEXT
  8
_0-9_
 62
    3
 10
70.446569502410483
 20
118.09416953174026
 40
5
 41
0.8
 50
25.546132917963433
  1
φ57.4
  0
INSERT
  2
-001-M-B-1
  8
_0-1_一般図
 10
-18.644059576096822
 20
183.58119218770835
 41
1
 42
1
 50
180
  0
ENDSEC
  0
EOF
