  0
SECTION
  2
HEADER
  9
$ACADVER
  1
AC1009
  9
$INSBASE
 10
0
 20
0
 30
0
  9
$EXTMIN
 10
0
 20
0
  9
$EXTMAX
 10
1260
 20
891
  9
$LIMMIN
 10
0
 20
0
  9
$LIMMAX
 10
1260
 20
891
  9
$LTSCALE
 40
3
  0
ENDSEC
  0
SECTION
  2
TABLES
  0
TABLE
  2
LTYPE
 70
     9
  0
LTYPE
  2
CONTINUOUS
 70
    64
  3
実線
 72
    65
 73
     0
 40
0.0
  0
LTYPE
  2
DASHED1
 70
    64
  3
--  --  --  --  --  --  --  --  
 72
    65
 73
     2
 40
2.5
 49
1.25
 49
-1.25
  0
LTYPE
  2
DASHED2
 70
    64
  3
----    ----    ----    ----    
 72
    65
 73
     2
 40
5.0
 49
2.5
 49
-2.5
  0
LTYPE
  2
DASHED3
 70
    64
  3
------  ------  ------  ------  
 72
    65
 73
     2
 40
5.0
 49
3.75
 49
-1.25
  0
LTYPE
  2
CENTER1
 70
    64
  3
----- - ----- - ----- - ----- - 
 72
    65
 73
     4
 40
10.0
 49
6.25
 49
-1.25
 49
1.25
 49
-1.25
  0
LTYPE
  2
CENTER2
 70
    64
  3
----------  --  ----------  --  
 72
    65
 73
     4
 40
20.0
 49
12.5
 49
-2.5
 49
2.5
 49
-2.5
  0
LTYPE
  2
PHANTOM1
 70
    64
  3
--- - - --- - - --- - - --- - - 
 72
    65
 73
     6
 40
10.0
 49
3.25
 49
-1.25
 49
1.25
 49
-1.25
 49
1.25
 49
-1.25
  0
LTYPE
  2
PHANTOM2
 70
    64
  3
--------  -  -  --------  -  -  
 72
    65
 73
     6
 40
20.0
 49
10.0
 49
-2.5
 49
1.25
 49
-2.5
 49
1.25
 49
-2.5
  0
LTYPE
  2
DOT
 70
    64
  3
-   -   -   -   -   -   -   -   
 72
    65
 73
     2
 40
2.5
 49
0.625
 49
-1.875
  0
LTYPE
  2
DUMMY
 70
    64
  3
ダミー
 72
    65
 73
     0
 40
0.0
  0
LTYPE
  2
RAND1
 70
    64
  3
ランダム線1
 72
    65
 73
     4
 40
10.0
 49
1.0
 49
-2.0
 49
3.0
 49
-4.0
  0
LTYPE
  2
RAND2
 70
    64
  3
ランダム線2
 72
    65
 73
     4
 40
14.0
 49
2.0
 49
-3.0
 49
4.0
 49
-5.0
  0
LTYPE
  2
RAND3
 70
    64
  3
ランダム線3
 72
    65
 73
     4
 40
18.0
 49
3.0
 49
-4.0
 49
5.0
 49
-6.0
  0
LTYPE
  2
RAND4
 70
    64
  3
ランダム線4
 72
    65
 73
     4
 40
22.0
 49
4.0
 49
-5.0
 49
6.0
 49
-7.0
  0
LTYPE
  2
RAND5
 70
    64
  3
ランダム線5
 72
    65
 73
     4
 40
26.0
 49
5.0
 49
-6.0
 49
7.0
 49
-8.0
  0
LTYPE
  2
LONG1
 70
    64
  3
----------  --  ----------  --  
 72
    65
 73
     4
 40
40.0
 49
32.5
 49
-2.5
 49
2.5
 49
-2.5
  0
LTYPE
  2
LONG2
 70
    64
  3
--------  -  -  --------  -  -  
 72
    65
 73
     6
 40
40.0
 49
30.0
 49
-2.5
 49
1.25
 49
-2.5
 49
1.25
 49
-2.5
  0
LTYPE
  2
LONG3
 70
    64
  3
+++++++++++++++..+++++++++++++++
 72
    65
 73
     2
 40
40.0
 49
37.5
 49
-2.5
  0
LTYPE
  2
LONG4
 70
    64
  3
+++++++++++++++..+++++++++++++++
 72
    65
 73
     2
 40
80.0
 49
75.0
 49
-5.0
  0
LTYPE
  2
LONG5
 70
    64
  3
----------  --  ----------  --  
 72
    65
 73
     4
 40
60.0
 49
37.5
 49
-7.5
 49
7.5
 49
-7.5
  0
LTYPE
  2
dashed
 70
   64
  3
-------   -------------   ------
 72
   65
 73
    2
 40
7.5
 49
6
 49
-1.5
  0
LTYPE
  2
dashed_spaced
 70
   64
  3
----        --------        ----
 72
   65
 73
    2
 40
12
 49
6
 49
-6
  0
LTYPE
  2
long_dashed_dotted
 70
   64
  3
------------- --- --------------
 72
   65
 73
    4
 40
15.25
 49
12
 49
-1.5
 49
0.25
 49
-1.5
  0
LTYPE
  2
long_dashed_double-dotted
 70
   64
  3
----------- --- --- ------------
 72
   65
 73
    6
 40
17
 49
12
 49
-1.5
 49
0.25
 49
-1.5
 49
0.25
 49
-1.5
  0
LTYPE
  2
long_dashed_triplicate-dotted
 70
   64
  3
--------- --- --- --- ----------
 72
   65
 73
    8
 40
18.75
 49
12
 49
-1.5
 49
0.25
 49
-1.5
 49
0.25
 49
-1.5
 49
0.25
 49
-1.5
  0
LTYPE
  2
dotted
 70
   64
  3
   -       -       -       -    
 72
   65
 73
    2
 40
1.75
 49
0.25
 49
-1.5
  0
LTYPE
  2
chain
 70
   64
  3
-------------- -- --------------
 72
   65
 73
    4
 40
18.5
 49
12
 49
-1.5
 49
3.5
 49
-1.5
  0
LTYPE
  2
chain_double_dash
 70
   64
  3
------------ -- -- -------------
 72
   65
 73
    6
 40
23.5
 49
12
 49
-1.5
 49
3.5
 49
-1.5
 49
3.5
 49
-1.5
  0
LTYPE
  2
dashed_dotted
 70
   64
  3
-----------     -     ----------
 72
   65
 73
    4
 40
9.25
 49
6
 49
-1.5
 49
0.25
 49
-1.5
  0
LTYPE
  2
double-dashed_dotted
 70
   64
  3
------   -----------   -   -----
 72
   65
 73
    6
 40
16.75
 49
6
 49
-1.5
 49
6
 49
-1.5
 49
0.25
 49
-1.5
  0
LTYPE
  2
dashed_double-dotted
 70
   64
  3
---------    -    -    ---------
 72
   65
 73
    6
 40
11
 49
6
 49
-1.5
 49
0.25
 49
-1.5
 49
0.25
 49
-1.5
  0
LTYPE
  2
double-dashed_double-dotted
 70
   64
  3
-----   ---------   -   -   ----
 72
   65
 73
    8
 40
18.5
 49
6
 49
-1.5
 49
6
 49
-1.5
 49
0.25
 49
-1.5
 49
0.25
 49
-1.5
  0
LTYPE
  2
dashed_triplicate-dotted
 70
   64
  3
-------    -    -    -    ------
 72
   65
 73
    8
 40
12.75
 49
6
 49
-1.5
 49
0.25
 49
-1.5
 49
0.25
 49
-1.5
 49
0.25
 49
-1.5
  0
LTYPE
  2
double-dashed_triplicate-dotted
 70
   64
  3
-----  ---------  -  -  -  -----
 72
   65
 73
   10
 40
20.25
 49
6
 49
-1.5
 49
6
 49
-1.5
 49
0.25
 49
-1.5
 49
0.25
 49
-1.5
 49
0.25
 49
-1.5
  0
LTYPE
  2
undefined
 70
   64
  3
--------------------------------
 72
   65
 73
    0
 40
0
  0
ENDTAB
  0
TABLE
  2
STYLE
  5
3
100
AcDbSymbolTable
 70
     1
  0
STYLE
  5
10
100
AcDbSymbolTableRecord
100
AcDbTextStyleTableRecord
  2
STANDARD
 70
     0
 40
0.0
 41
1.0
 50
0.0
 71
     0
 42
0.2
  3
txt
  4
bigfont.shx
  0
STYLE
  5
26
100
AcDbSymbolTableRecord
100
AcDbTextStyleTableRecord
  2
TATEGAKI
 70
    68
 40
0.0
 41
1.0
 50
0.0
 71
     0
 42
1.0
  3
txt
  4
bigfont.shx
  0
ENDTAB
  0
TABLE
  2
LAYER
 70
    9
  0
LAYER
  2
_0-1_
 70
   64
 62
    7
  6
CONTINUOUS
  0
LAYER
  2
_0-2__
 70
   64
 62
    7
  6
CONTINUOUS
  0
LAYER
  2
_0-3__
 70
   64
 62
    7
  6
CONTINUOUS
  0
LAYER
  2
_0-9__
 70
   64
 62
    7
  6
CONTINUOUS
  0
LAYER
  2
_0-a__
 70
   64
 62
    7
  6
CONTINUOUS
  0
LAYER
  2
_0-b__
 70
   64
 62
    7
  6
CONTINUOUS
  0
LAYER
  2
_f-0_
 70
   64
 62
    7
  6
CONTINUOUS
  0
LAYER
  2
_f-a__
 70
   64
 62
    7
  6
CONTINUOUS
  0
LAYER
  2
ADD_LINE
 70
   64
 62
    7
  6
CONTINUOUS
  0
ENDTAB
  0
ENDSEC
  0
SECTION
  2
BLOCKS
  0
BLOCK
  2
-000-NT-12N
 70
   64
 10
0
 20
0
 30
0
  0
LINE
  8
_0-1_
  6
CONTINUOUS
 62
    7
 10
253.99576887324716
 20
127.24814279205862
 11
253.99576887324716
 21
126.34814279205943
  0
LINE
  8
_0-1_
  6
CONTINUOUS
 62
    7
 10
253.99576887324716
 20
127.24814279205862
 11
258.49576887324713
 21
131.74814279205862
  0
ARC
  8
_0-1_
  6
CONTINUOUS
 62
    7
 10
265.69758292974689
 20
-172.61680431794031
 40
2.0999999999999996
 50
1.2602047085040915
 51
181.26020470819137
  0
ARC
  8
_0-1_
  6
CONTINUOUS
 62
    7
 10
273.36071598414651
 20
-164.95367126354068
 40
2.0999999999999996
 50
88.739795291600231
 51
268.73979529169793
  0
ARC
  8
_0-1_
  6
CONTINUOUS
 62
    7
 10
273.19576887354674
 20
-172.45185720734054
 40
5.4000000000000004
 50
181.26020470829556
 51
88.739795291697874
  0
LINE
  8
_0-1_
  6
CONTINUOUS
 62
    7
 10
-226.00423112645234
 20
173.74814279207311
 11
-226.00423112645234
 21
155.74814279205862
  0
ARC
  8
_0-1_
  6
CONTINUOUS
 62
    7
 10
-229.00423112645234
 20
173.74814279207311
 40
3
 50
0
 51
89.999999999722803
  0
ARC
  8
_0-1_
  6
CONTINUOUS
 62
    7
 10
274.99576887324713
 20
-174.25185720794138
 40
9
 50
270
 51
0
  0
ARC
  8
_0-1_
  6
CONTINUOUS
 62
    7
 10
-101.24162405205308
 20
-174.25185720794138
 40
9
 50
214.22633266265234
 51
270
  0
LINE
  8
_0-1_
  6
CONTINUOUS
 62
    7
 10
-101.24162405205308
 20
-183.25185720794138
 11
274.99576887324713
 21
-183.25185720794138
  0
ARC
  8
_0-1_
  6
CONTINUOUS
 62
    7
 10
-102.65316264025508
 20
-165.3341876237921
 40
2.0999999999999996
 50
288.3733710385041
 51
108.37337103819138
  0
ARC
  8
_0-1_
  6
CONTINUOUS
 62
    7
 10
-93.074358395388828
 20
-170.40308549782745
 40
2.0999999999999996
 50
15.852961621600238
 51
195.85296162169794
  0
ARC
  8
_0-1_
  6
CONTINUOUS
 62
    7
 10
-100.28910263752189
 20
-172.45185720734054
 40
5.4000000000000004
 50
108.37337103829557
 51
15.852961621697887
  0
LINE
  8
_0-1_
  6
CONTINUOUS
 62
    7
 10
283.99576887324713
 20
128.74814279205862
 11
283.99576887324713
 21
-174.25185720794138
  0
LINE
  8
_0-1_
  6
CONTINUOUS
 62
    7
 10
280.99576887324713
 20
131.74814279205862
 11
258.49576887324713
 21
131.74814279205862
  0
ARC
  8
_0-1_
  6
CONTINUOUS
 62
    7
 10
280.99576887324713
 20
128.74814279205862
 40
3
 50
0
 51
90
  0
ARC
  8
_0-1_
  6
CONTINUOUS
 62
    7
 10
-283.00423112675264
 20
187.24814279233914
 40
3
 50
89.999999999617827
 51
179.99999999999994
  0
LINE
  8
_0-1_
  6
CONTINUOUS
 62
    7
 10
-226.00423112645234
 20
155.74814279205862
 11
-232.0042311260263
 21
155.74814279205862
  0
LINE
  8
_0-1_
  6
CONTINUOUS
 62
    7
 10
-232.0042311260263
 20
155.74814279205862
 11
-232.00423112422601
 21
170.74814279208744
  0
LINE
  8
_0-1_
  6
CONTINUOUS
 62
    7
 10
-229.00423112643784
 20
176.74814279207311
 11
-280.0042311260263
 21
176.74814279232277
  0
LINE
  8
_0-1_
  6
CONTINUOUS
 62
    7
 10
-280.0042311260263
 20
176.74814279232277
 11
-280.0042311260263
 21
184.24814279232319
  0
LINE
  8
_0-1_
  6
CONTINUOUS
 62
    7
 10
-232.00423112422601
 20
170.74814279208744
 11
-280.00423112572599
 21
170.74814279208744
  0
ARC
  8
_0-1_
  6
CONTINUOUS
 62
    7
 10
-100.28910263752189
 20
-172.45185720734054
 40
9.6000000000000014
 50
108.37337103829552
 51
132.43954336163171
  0
ARC
  8
_0-1_
  6
CONTINUOUS
 62
    7
 10
-108.79173233383845
 20
-163.15318589110854
 40
3
 50
214.22633266265058
 51
312.43954336163171
  0
ARC
  8
_0-1_
  6
CONTINUOUS
 62
    7
 10
-100.28910263752189
 20
-172.45185720734054
 40
9.6000000000000014
 50
351.78678929549892
 51
15.852961621697384
  0
ARC
  8
_0-1_
  6
CONTINUOUS
 62
    7
 10
-87.818336823112787
 20
-174.2518572079419
 40
3
 50
171.78678929549875
 51
270
  0
LINE
  8
_0-1_
  6
CONTINUOUS
 62
    7
 10
-87.818336823112787
 20
-177.2518572079419
 11
260.72500305913758
 21
-177.2518572079419
  0
ARC
  8
_0-1_
  6
CONTINUOUS
 62
    7
 10
273.19576887354674
 20
-172.45185720734054
 40
9.6000000000000014
 50
181.26020470829539
 51
188.21321070450105
  0
ARC
  8
_0-1_
  6
CONTINUOUS
 62
    7
 10
260.72500305913758
 20
-174.2518572079419
 40
3
 50
270
 51
8.213210704501277
  0
ARC
  8
_0-1_
  6
CONTINUOUS
 62
    7
 10
273.19576887354674
 20
-172.45185720734054
 40
9.6000000000000014
 50
81.786789296300142
 51
88.739795291697462
  0
ARC
  8
_0-1_
  6
CONTINUOUS
 62
    7
 10
274.9957688739737
 20
-159.98109139290625
 40
3
 50
261.78678929630001
 51
0
  0
ARC
  8
_0-1_
  6
CONTINUOUS
 62
    7
 10
255.49576887324716
 20
126.34814279205943
 40
1.5
 50
180
 51
336.42182152177105
  0
LINE
  8
_0-1_
  6
CONTINUOUS
 62
    7
 10
277.99576887187413
 20
125.74814279205879
 11
256.87054158173362
 21
125.74814279205879
  0
LINE
  8
_0-1_
  6
CONTINUOUS
 62
    7
 10
-283.00423112673263
 20
190.24814279233914
 11
-262.00423112675264
 21
190.24814279215906
  0
LINE
  8
_0-1_
  6
CONTINUOUS
 62
    7
 10
-262.00423112675264
 20
190.24814279215906
 11
-262.00423112675264
 21
184.24814279215906
  0
LINE
  8
_0-1_
  6
CONTINUOUS
 62
    7
 10
-262.00423112675264
 20
184.24814279215906
 11
-280.0042311260263
 21
184.24814279232319
  0
ARC
  8
_0-1_
  6
CONTINUOUS
 62
    7
 10
-239.41884821922389
 20
82.566792398953226
 40
2.0999999999999996
 50
226.26020470839975
 51
46.260204708197875
  0
ARC
  8
_0-1_
  6
CONTINUOUS
 62
    7
 10
-239.41884821922406
 20
71.729485703151951
 40
2.0999999999999996
 50
313.7397952918086
 51
133.73979529149591
  0
ARC
  8
_0-1_
  6
CONTINUOUS
 62
    7
 10
-244.60423112645265
 20
77.148139051264934
 40
5.4000000000000004
 50
46.260204708302162
 51
313.73979529170447
  0
ARC
  8
_0-1_
  6
CONTINUOUS
 62
    7
 10
-244.60423112645265
 20
77.148139051264934
 40
9.6000000000000014
 50
46.260204708302162
 51
161.79004313571724
  0
ARC
  8
_0-1_
  6
CONTINUOUS
 62
    7
 10
-244.60423112645265
 20
77.148139051264934
 40
9.6000000000000014
 50
198.20995686428327
 51
313.73979529170458
  0
LINE
  8
_0-1_
  6
CONTINUOUS
 62
    7
 10
-280.0042311260263
 20
170.74814279208744
 11
-280.0042311260263
 21
83.195782645463979
  0
LINE
  8
_0-1_
  6
CONTINUOUS
 62
    7
 10
-277.93100645923153
 20
80.148139051264891
 11
-253.72344161859502
 21
80.148139051264891
  0
LINE
  8
_0-1_
  6
CONTINUOUS
 62
    7
 10
-280.0042311260263
 20
83.195782645463979
 11
-277.93100645923153
 21
80.148139051264891
  0
LINE
  8
_0-1_
  6
CONTINUOUS
 62
    7
 10
-268.18021439185634
 20
74.148139051264891
 11
-253.72344161859502
 21
74.148139051264891
  0
LINE
  8
_0-1_
  6
CONTINUOUS
 62
    7
 10
-270.66068086615286
 20
69.460748737824886
 11
-111.272198808135
 21
-164.84057620454848
  0
ARC
  8
_0-1_
  6
CONTINUOUS
 62
    7
 10
-268.18021439185634
 20
71.148139051264891
 40
3
 50
90
 51
214.22633266265228
  0
LINE
  8
_0-1_
  6
CONTINUOUS
 62
    7
 10
-286.00423112675264
 20
187.24814279233914
 11
-286.00423112675264
 21
84.119457840643534
  0
ARC
  8
_0-1_
  6
CONTINUOUS
 62
    7
 10
-277.00423112675264
 20
84.119457840643534
 40
9
 50
180
 51
214.22633266265228
  0
LINE
  8
_0-1_
  6
CONTINUOUS
 62
    7
 10
-284.44563054964209
 20
79.057286900323504
 11
-108.68302347494252
 21
-179.3140281482614
  0
ARC
  8
_0-1_
  6
CONTINUOUS
 62
    7
 10
242.59576887428761
 20
71.748139020078881
 40
5.4000000000000004
 50
316.26020470829553
 51
223.73979529169787
  0
ARC
  8
_0-1_
  6
CONTINUOUS
 62
    7
 10
248.01442222218861
 20
66.562756113063116
 40
2.0999999999999996
 50
136.26020470850409
 51
316.2602047081914
  0
ARC
  8
_0-1_
  6
CONTINUOUS
 62
    7
 10
237.17711552638661
 20
66.562756113063116
 40
2.0999999999999996
 50
223.73979529160025
 51
43.739795291697938
  0
ARC
  8
_0-1_
  6
CONTINUOUS
 62
    7
 10
242.59576887428761
 20
71.748139020078881
 40
9.6000000000000014
 50
180
 51
223.73979529169787
  0
LINE
  8
_0-1_
  6
CONTINUOUS
 62
    7
 10
232.99576887428748
 20
71.748139020078881
 11
232.99576887428748
 21
77.14813902006442
  0
ARC
  8
_0-1_
  6
CONTINUOUS
 62
    7
 10
242.59576887428761
 20
71.748139020078881
 40
9.6000000000000014
 50
316.26020470829684
 51
0.000000186127841
  0
ARC
  8
_0-1_
  6
CONTINUOUS
 62
    7
 10
242.59576887367371
 20
77.14813902006442
 40
9.6000000000000014
 50
16.570258384632947
 51
180
  0
LINE
  8
_0-1_
  6
CONTINUOUS
 62
    7
 10
252.19576887356141
 20
71.7481390512649
 11
252.19576887356141
 21
74.148139051250439
  0
LINE
  8
_0-1_
  6
CONTINUOUS
 62
    7
 10
252.19576887356141
 20
74.148139051250439
 11
277.9957688739737
 21
74.148139051250439
  0
LINE
  8
_0-1_
  6
CONTINUOUS
 62
    7
 10
277.9957688739737
 20
-159.98109139290625
 11
277.9957688739737
 21
74.148139051250439
  0
LINE
  8
_0-1_
  6
CONTINUOUS
 62
    7
 10
251.71497936508979
 20
80.148139051250439
 11
277.9957688739737
 21
80.148139051250439
  0
LINE
  8
_0-1_
  6
CONTINUOUS
 62
    7
 10
277.9957688739737
 20
80.148139051250439
 11
277.9957688739737
 21
125.74814276085857
  0
ENDBLK
  0
BLOCK
  2
-001-JEJ-12N
 70
   64
 10
0
 20
0
 30
0
  0
LINE
  8
_0-1_
  6
CONTINUOUS
 62
    7
 10
252.19337825360901
 20
97.042122962058684
 11
285.19337825360901
 21
97.042122962058684
  0
ARC
  8
_0-1_
  6
CONTINUOUS
 62
    7
 10
274.69337825360901
 20
-210.45787703794133
 40
10.5
 50
270
 51
0
  0
LINE
  8
_0-1_
  6
CONTINUOUS
 62
    7
 10
285.19337825360901
 20
-210.45787703794133
 11
285.19337825360901
 21
97.042122962058684
  0
LINE
  8
_0-1_
  6
CONTINUOUS
 62
    7
 10
-285.9882544064285
 20
42.007571913603357
 11
-110.22564733172896
 21
-216.36374313498118
  0
ARC
  8
_0-1_
  6
CONTINUOUS
 62
    7
 10
-101.54401467169126
 20
-210.45787703794133
 40
10.5
 50
214.22633266265234
 51
270
  0
LINE
  8
_0-1_
  6
CONTINUOUS
 62
    7
 10
-101.54401467169126
 20
-220.95787703794133
 11
274.69337825360901
 21
-220.95787703794133
  0
ARC
  8
_0-1_
  6
CONTINUOUS
 62
    7
 10
-277.30662174639082
 20
47.913438010643546
 40
10.5
 50
180
 51
214.22633266265228
  0
LINE
  8
_0-1_
  6
CONTINUOUS
 62
    7
 10
-287.80662174639082
 20
155.54212296236904
 11
-287.80662174639082
 21
47.913438010643546
  0
LINE
  8
_0-1_
  6
CONTINUOUS
 62
    7
 10
-287.80662174639082
 20
155.54212296236904
 11
-259.306621746411
 21
155.54212296217904
  0
ARC
  8
_0-1_
  6
CONTINUOUS
 62
    7
 10
-259.30662174639099
 20
158.54212296217921
 40
3.0000000000001705
 50
269.99999999961813
 51
89.999999999618126
  0
ARC
  8
_0-1_
  6
CONTINUOUS
 62
    7
 10
-290.80662174639099
 20
158.54212296238907
 40
3
 50
89.99999999961895
 51
180
  0
ARC
  8
_0-1_
  6
CONTINUOUS
 62
    7
 10
249.19337825360901
 20
100.04212296205868
 40
3
 50
90
 51
180
  0
LINE
  8
_0-1_
  6
CONTINUOUS
 62
    7
 10
288.19337825360901
 20
103.04212296205868
 11
249.19337825360901
 21
103.04212296205868
  0
ARC
  8
_0-1_
  6
CONTINUOUS
 62
    7
 10
288.19337825360901
 20
100.04212296205868
 40
3
 50
0
 51
90.000000000000014
  0
LINE
  8
_0-1_
  6
CONTINUOUS
 62
    7
 10
291.19337825360901
 20
-210.45787703794133
 11
291.19337825360901
 21
100.04212296205868
  0
ARC
  8
_0-1_
  6
CONTINUOUS
 62
    7
 10
274.69337825360901
 20
-210.45787703794133
 40
16.5
 50
270
 51
0
  0
LINE
  8
_0-1_
  6
CONTINUOUS
 62
    7
 10
-101.54401467169117
 20
-226.95787703794133
 11
274.69337825360901
 21
-226.95787703794133
  0
ARC
  8
_0-1_
  6
CONTINUOUS
 62
    7
 10
-101.54401467169117
 20
-210.45787703794133
 40
16.5
 50
214.22633266265234
 51
270
  0
LINE
  8
_0-1_
  6
CONTINUOUS
 62
    7
 10
-290.94918735502165
 20
38.632791286723403
 11
-115.18658028032182
 21
-219.73852376186136
  0
LINE
  8
_0-1_
  6
CONTINUOUS
 62
    7
 10
-293.80662174639099
 20
47.913438010643461
 11
-293.80662174639099
 21
158.54212296238907
  0
ARC
  8
_0-1_
  6
CONTINUOUS
 62
    7
 10
-277.30662174639099
 20
47.913438010643461
 40
16.5
 50
180
 51
214.22633266265234
  0
LINE
  8
_0-1_
  6
CONTINUOUS
 62
    7
 10
252.19337825360901
 20
97.042122962058684
 11
252.19337825360901
 21
95.542122962058599
  0
ARC
  8
_0-1_
  6
CONTINUOUS
 62
    7
 10
249.19337825360901
 20
95.542122962058599
 40
3
 50
180
 51
0
  0
LINE
  8
_0-1_
  6
CONTINUOUS
 62
    7
 10
246.19337825360901
 20
100.04212296205868
 11
246.19337825360901
 21
95.542122962058599
  0
LINE
  8
_0-1_
  6
CONTINUOUS
 62
    7
 10
-274.60662174642175
 20
161.54212296226535
 11
-273.70662174642138
 21
160.64212296225935
  0
LINE
  8
_0-1_
  6
CONTINUOUS
 62
    7
 10
-272.80662174643311
 20
161.54212296225342
 11
-273.70662174642138
 21
160.64212296225935
  0
LINE
  8
_0-1_
  6
CONTINUOUS
 62
    7
 10
-272.80662174643311
 20
161.54212296225342
 11
-259.30662174637098
 21
161.54212296217938
  0
LINE
  8
_0-1_
  6
CONTINUOUS
 62
    7
 10
-290.80662174637104
 20
161.54212296238907
 11
-274.60662174642175
 21
161.54212296226535
  0
ENDBLK
  0
BLOCK
  2
-002-TX4X16O
 70
   64
 10
0
 20
0
 30
0
  0
LINE
  8
_0-1_
  6
DASHED1
 62
    5
 10
-6.2887044875160996
 20
-10.324957681963788
 11
6.3111446116938907
 21
-8.2090500203837635
  0
LINE
  8
_0-1_
  6
DASHED1
 62
    5
 10
-6.2887044875160996
 20
-5.5249580464960175
 11
6.3111446116938907
 21
-3.4090503849160783
  0
LINE
  8
_0-1_
  6
DASHED1
 62
    5
 10
-6.2887044875160996
 20
-0.7249584110284175
 11
6.3111446116938907
 21
1.390949250551607
  0
LINE
  8
_0-1_
  6
DASHED1
 62
    5
 10
-6.2887044875160996
 20
4.075041224439353
 11
6.3111446116938907
 21
6.1909488860192923
  0
LINE
  8
_0-1_
  6
DASHED1
 62
    5
 10
-6.2887044875160996
 20
8.875040859906953
 11
6.3111446116938907
 21
10.990948521486978
  0
LINE
  8
_0-1_
  6
DASHED1
 62
    5
 10
-6.2887044875160996
 20
13.675040495374724
 11
6.3111446116938907
 21
15.790948156954663
  0
LINE
  8
_0-1_
  6
DASHED1
 62
    5
 10
4.8110991929596025
 20
-12.463130792780767
 11
-4.7888246238378542
 21
-13.866355261078986
  0
LINE
  8
_0-1_
  6
DASHED1
 62
    5
 10
-2.6887764557010598
 20
-25.41110642831547
 11
1.392125077753974
 21
-12.94951756876538
  0
LINE
  8
_0-1_
  6
DASHED1
 62
    5
 10
0.0112462557165144
 20
-28.009058317413754
 11
-2.6887399775108634
 21
-25.41099770943044
  0
LINE
  8
_0-1_
  6
DASHED1
 62
    5
 10
-2.6887687665476392
 20
-25.410971960293473
 11
-4.7887570322304498
 21
-25.410971960293473
  0
LINE
  8
_0-1_
  6
DASHED1
 62
    5
 10
0.0111983788796408
 20
-28.009169897278589
 11
4.81116821516963
 21
-14.267808279248364
  0
LINE
  8
_0-1_
  6
DASHED1
 62
    5
 10
1.3920766191846781
 20
-12.949436029606893
 11
4.8111574863123394
 21
-14.267733892604959
  0
LINE
  8
_0-1_
  6
DASHED1
 62
    3
 10
0.011243077648487
 20
-28.009038290191718
 11
-4.7887395084461275
 21
-25.410954794162599
  0
LINE
  8
_0-1_
  6
DASHED1
 62
    3
 10
4.8111828778580161
 20
-25.410944255951058
 11
0.0112100228890028
 21
-28.009021124116096
  0
LINE
  8
_0-1_
  6
DASHED1
 62
    3
 10
-4.7887570321717021
 20
-25.410971960291427
 11
-4.7887570321717021
 21
19.990944543645348
  0
LINE
  8
_0-1_
  6
DASHED1
 62
    3
 10
4.8111828778580161
 20
-25.410944255951058
 11
4.8111828778580161
 21
19.990944543645348
  0
LINE
  8
_0-1_
  6
CONTINUOUS
 62
    7
 10
12.011212922871891
 20
20.590944507910102
 11
12.011212922871891
 21
24.504639688332041
  0
LINE
  8
_0-1_
  6
CONTINUOUS
 62
    7
 10
11.41121063398532
 20
19.990944543645348
 11
-11.388784788332089
 21
19.990944543645348
  0
ARC
  8
_0-1_
  6
CONTINUOUS
 62
    7
 10
0.0112129018277755
 20
6.3774532881049524
 40
22.013491255583588
 50
57.776535044633405
 51
122.22346325049699
  0
ARC
  8
_0-1_
  6
CONTINUOUS
 62
    7
 10
-11.388784788440034
 20
24.504639688267581
 40
0.5999999642372999
 50
124.29764032734626
 51
179.99996402781815
  0
ARC
  8
_0-1_
  6
CONTINUOUS
 62
    7
 10
-11.388784788303866
 20
20.590944507843083
 40
0.5999999642372999
 50
180.00003597218074
 51
270.0000179860902
  0
LINE
  8
_0-1_
  6
CONTINUOUS
 62
    7
 10
-11.988787077121117
 20
20.59094450789825
 11
-11.988787077121117
 21
24.504639688320189
  0
ARC
  8
_0-1_
  6
CONTINUOUS
 62
    7
 10
11.411210634053361
 20
24.504639688299982
 40
0.5999999642372999
 50
359.99999999999943
 51
55.702357851419322
  0
ARC
  8
_0-1_
  6
CONTINUOUS
 62
    7
 10
11.411210634014822
 20
20.590944507878042
 40
0.5999999642372999
 50
270.0000179860902
 51
359.99999999999943
  0
ENDBLK
  0
BLOCK
  2
-003-TK-A_1__1__1__1__1_
 70
   64
 10
0
 20
0
 30
0
  0
LINE
  8
_4-1_
  6
CONTINUOUS
 62
    7
 10
250.10361650093682
 20
1.4290213782770138
 11
237.20362124382268
 21
1.4290213782770138
  0
LINE
  8
_4-1_
  6
CONTINUOUS
 62
    7
 10
249.37569350094896
 20
13.429021378277014
 11
232.23305750093641
 21
13.429021378277014
  0
LINE
  8
_4-1_
  6
CONTINUOUS
 62
    7
 10
212.66758131900201
 20
-23.107015045127028
 11
237.20362124382268
 21
1.4290213782770138
  0
LINE
  8
_4-1_
  6
CONTINUOUS
 62
    7
 10
197.30361983423813
 20
-29.470975621721237
 11
212.66758131900201
 21
-23.107015045127028
  0
LINE
  8
_4-1_
  6
CONTINUOUS
 62
    7
 10
-204.46034240013432
 20
-23.107015028091951
 11
-228.996382176564
 21
1.4290213782770138
  0
LINE
  8
_4-1_
  6
CONTINUOUS
 62
    7
 10
-204.46034240013432
 20
-23.107015028091951
 11
-189.09638093240574
 21
-29.470975621721237
  0
LINE
  8
_4-1_
  6
CONTINUOUS
 62
    7
 10
-232.89638085245952
 20
84.52902437865788
 11
-232.89638085245952
 21
80.458461269579033
  0
LINE
  8
_4-1_
  6
CONTINUOUS
 62
    7
 10
-267.39638049936025
 20
45.958461622678549
 11
-232.89638085245952
 21
80.458461269579033
  0
LINE
  8
_4-1_
  6
CONTINUOUS
 62
    7
 10
-239.58317705643458
 20
84.529024378484792
 11
-232.89638085245952
 21
84.529024378484792
  0
LINE
  8
_4-1_
  6
CONTINUOUS
 62
    7
 10
-250.18977877423282
 20
80.135626096283019
 11
-279.39638049936025
 21
50.929024371155663
  0
ARC
  8
_4-1_
  6
CONTINUOUS
 62
    7
 10
-239.58317705643458
 20
69.529024378484792
 40
15
 50
90
 51
134.99999999999991
  0
ARC
  8
_4-1_
  6
CONTINUOUS
 62
    7
 10
275.60361950063975
 20
36.529024378448867
 40
3
 50
0
 51
90
  0
LINE
  8
_4-1_
  6
CONTINUOUS
 62
    7
 10
275.60361950063975
 20
39.529024378448867
 11
269.60361950063975
 21
39.529024378448867
  0
LINE
  8
_4-1_
  6
CONTINUOUS
 62
    7
 10
269.60361950063975
 20
33.656947377982718
 11
269.60361950063975
 21
39.529024378448867
  0
LINE
  8
_4-1_
  6
CONTINUOUS
 62
    7
 10
249.37569350094896
 20
13.429021378277014
 11
269.60361950063975
 21
33.656947377982718
  0
LINE
  8
_4-1_
  6
CONTINUOUS
 62
    7
 10
278.60361950063975
 20
36.529024378448867
 11
278.60361950063975
 21
29.929024377981445
  0
LINE
  8
_4-1_
  6
CONTINUOUS
 62
    7
 10
278.60361950063975
 20
29.929024377981445
 11
250.10361650093682
 21
1.4290213782770138
  0
LINE
  8
_4-1_
  6
CONTINUOUS
 62
    7
 10
-250.41439699054195
 20
2.7470408629375669
 11
-279.39638049936025
 21
31.729024371755678
  0
LINE
  8
_a-1_
  6
CONTINUOUS
 62
    7
 10
-279.39638049936025
 20
50.929024371155663
 11
-279.39638049936025
 21
31.729024371755678
  0
LINE
  8
_a-1_
  6
CONTINUOUS
 62
    7
 10
-267.39638049936025
 20
45.958461622678549
 11
-267.39638049936025
 21
36.69958712023282
  0
LINE
  8
_4-1_
  6
CONTINUOUS
 62
    7
 10
-267.39638049936025
 20
36.69958712023282
 11
-244.12581475740433
 21
13.429021378277014
  0
LINE
  8
_4-1_
  6
CONTINUOUS
 62
    7
 10
-219.78317893235248
 20
13.429021378277014
 11
-244.12581475740433
 21
13.429021378277014
  0
ARC
  8
_4-1_
  6
CONTINUOUS
 62
    7
 10
-247.23241647520263
 20
5.9290213782770138
 40
4.5
 50
225
 51
270
  0
LINE
  8
_4-1_
  6
CONTINUOUS
 62
    7
 10
-247.23241647520263
 20
1.4290213782770138
 11
-228.996382176564
 21
1.4290213782770138
  0
LINE
  8
_a-1_
  6
CONTINUOUS
 62
    7
 10
-118.89671349906644
 20
-14.470975621722602
 11
-120.39671349906644
 21
-8.4709756217226015
  0
LINE
  8
_a-1_
  6
CONTINUOUS
 62
    7
 10
-118.89671349906644
 20
-14.470975621722602
 11
-115.89671349906644
 21
-14.470975621722602
  0
LINE
  8
_a-1_
  6
CONTINUOUS
 62
    7
 10
-127.89671349906644
 20
-14.470975621722602
 11
-129.39671349906644
 21
-8.4709756217226015
  0
LINE
  8
_a-1_
  6
CONTINUOUS
 62
    7
 10
-127.89671349906644
 20
-14.470975621722602
 11
-124.89671349906644
 21
-14.470975621722602
  0
LINE
  8
_a-1_
  6
CONTINUOUS
 62
    7
 10
-124.89671349906644
 20
-14.470975621722602
 11
-123.39671349906644
 21
-8.4709756217226015
  0
LINE
  8
_a-1_
  6
CONTINUOUS
 62
    7
 10
-136.89671349906644
 20
-14.470975621722602
 11
-138.39671349906644
 21
-8.4709756217226015
  0
LINE
  8
_a-1_
  6
CONTINUOUS
 62
    7
 10
-136.89671349906644
 20
-14.470975621722602
 11
-133.89671349906644
 21
-14.470975621722602
  0
LINE
  8
_a-1_
  6
CONTINUOUS
 62
    7
 10
-133.89671349906644
 20
-14.470975621722602
 11
-132.39671349906644
 21
-8.4709756217226015
  0
LINE
  8
_a-1_
  6
CONTINUOUS
 62
    7
 10
-145.89671349906644
 20
-14.470975621722602
 11
-147.39671349906644
 21
-8.4709756217226015
  0
LINE
  8
_a-1_
  6
CONTINUOUS
 62
    7
 10
-145.89671349906644
 20
-14.470975621722602
 11
-142.89671349906644
 21
-14.470975621722602
  0
LINE
  8
_a-1_
  6
CONTINUOUS
 62
    7
 10
-142.89671349906644
 20
-14.470975621722602
 11
-141.39671349906644
 21
-8.4709756217226015
  0
LINE
  8
_a-1_
  6
CONTINUOUS
 62
    7
 10
-154.89671349906644
 20
-14.470975621722602
 11
-156.39671349906644
 21
-8.4709756217226015
  0
LINE
  8
_a-1_
  6
CONTINUOUS
 62
    7
 10
-154.89671349906644
 20
-14.470975621722602
 11
-151.89671349906644
 21
-14.470975621722602
  0
LINE
  8
_a-1_
  6
CONTINUOUS
 62
    7
 10
-151.89671349906644
 20
-14.470975621722602
 11
-150.39671349906644
 21
-8.4709756217226015
  0
LINE
  8
_a-1_
  6
CONTINUOUS
 62
    7
 10
-163.89671349906644
 20
-14.470975621722602
 11
-165.39671349906644
 21
-8.4709756217226015
  0
LINE
  8
_a-1_
  6
CONTINUOUS
 62
    7
 10
-163.89671349906644
 20
-14.470975621722602
 11
-160.89671349906644
 21
-14.470975621722602
  0
LINE
  8
_a-1_
  6
CONTINUOUS
 62
    7
 10
-160.89671349906644
 20
-14.470975621722602
 11
-159.39671349906644
 21
-8.4709756217226015
  0
LINE
  8
_a-1_
  6
CONTINUOUS
 62
    7
 10
-172.89671349906644
 20
-14.470975621722602
 11
-174.39671349906644
 21
-8.4709756217226015
  0
LINE
  8
_a-1_
  6
CONTINUOUS
 62
    7
 10
-172.89671349906644
 20
-14.470975621722602
 11
-169.89671349906644
 21
-14.470975621722602
  0
LINE
  8
_a-1_
  6
CONTINUOUS
 62
    7
 10
-169.89671349906644
 20
-14.470975621722602
 11
-168.39671349906644
 21
-8.4709756217226015
  0
LINE
  8
_a-1_
  6
CONTINUOUS
 62
    7
 10
-181.89671349906644
 20
-14.470975621722602
 11
-178.89671349906644
 21
-14.470975621722602
  0
LINE
  8
_a-1_
  6
CONTINUOUS
 62
    7
 10
-178.89671349906644
 20
-14.470975621722602
 11
-177.39671349906644
 21
-8.4709756217226015
  0
LINE
  8
_a-1_
  6
CONTINUOUS
 62
    7
 10
-190.89671349906644
 20
-14.470975621722602
 11
-187.89671349906644
 21
-14.470975621722602
  0
LINE
  8
_a-1_
  6
CONTINUOUS
 62
    7
 10
-190.89671349906644
 20
-14.470975621722602
 11
-192.39671349906644
 21
-8.4709756217226015
  0
LINE
  8
_4-1_
  6
CONTINUOUS
 62
    7
 10
-197.88317892435674
 20
-8.4709756217226015
 11
-192.39671349906644
 21
-8.4709756217226015
  0
LINE
  8
_4-1_
  6
CONTINUOUS
 62
    7
 10
-197.88317892435674
 20
-8.4709756217226015
 11
-219.78317893235248
 21
13.429021378277014
  0
LINE
  8
_a-1_
  6
CONTINUOUS
 62
    7
 10
-187.89671349906644
 20
-14.470975621722602
 11
-186.39671349906644
 21
-8.4709756217226015
  0
LINE
  8
_a-1_
  6
CONTINUOUS
 62
    7
 10
-186.39671349906644
 20
-8.4709756217226015
 11
-183.39671349906644
 21
-8.4709756217226015
  0
LINE
  8
_a-1_
  6
CONTINUOUS
 62
    7
 10
-181.89671349906644
 20
-14.470975621722602
 11
-183.39671349906644
 21
-8.4709756217226015
  0
LINE
  8
_a-1_
  6
CONTINUOUS
 62
    7
 10
-177.39671349906644
 20
-8.4709756217226015
 11
-174.39671349906644
 21
-8.4709756217226015
  0
LINE
  8
_a-1_
  6
CONTINUOUS
 62
    7
 10
-168.39671349906644
 20
-8.4709756217226015
 11
-165.39671349906644
 21
-8.4709756217226015
  0
LINE
  8
_a-1_
  6
CONTINUOUS
 62
    7
 10
-159.39671349906644
 20
-8.4709756217226015
 11
-156.39671349906644
 21
-8.4709756217226015
  0
LINE
  8
_a-1_
  6
CONTINUOUS
 62
    7
 10
-150.39671349906644
 20
-8.4709756217226015
 11
-147.39671349906644
 21
-8.4709756217226015
  0
LINE
  8
_a-1_
  6
CONTINUOUS
 62
    7
 10
-141.39671349906644
 20
-8.4709756217226015
 11
-138.39671349906644
 21
-8.4709756217226015
  0
LINE
  8
_a-1_
  6
CONTINUOUS
 62
    7
 10
-132.39671349906644
 20
-8.4709756217226015
 11
-129.39671349906644
 21
-8.4709756217226015
  0
LINE
  8
_a-1_
  6
CONTINUOUS
 62
    7
 10
-123.39671349906644
 20
-8.4709756217226015
 11
-120.39671349906644
 21
-8.4709756217226015
  0
LINE
  8
_a-1_
  6
CONTINUOUS
 62
    7
 10
181.10328650093356
 20
-14.470975621722602
 11
182.60328650093356
 21
-8.4709756217226015
  0
LINE
  8
_a-1_
  6
CONTINUOUS
 62
    7
 10
187.10328650093356
 20
-14.470975621722602
 11
185.60328650093356
 21
-8.4709756217226015
  0
LINE
  8
_a-1_
  6
CONTINUOUS
 62
    7
 10
187.10328650093356
 20
-14.470975621722602
 11
190.10328650093356
 21
-14.470975621722602
  0
LINE
  8
_a-1_
  6
CONTINUOUS
 62
    7
 10
190.10328650093356
 20
-14.470975621722602
 11
191.60328650093356
 21
-8.4709756217226015
  0
LINE
  8
_a-1_
  6
CONTINUOUS
 62
    7
 10
182.60328650093356
 20
-8.4709756217226015
 11
185.60328650093356
 21
-8.4709756217226015
  0
LINE
  8
_a-1_
  6
CONTINUOUS
 62
    7
 10
196.10328650093356
 20
-14.470975621722602
 11
194.60328650093356
 21
-8.4709756217226015
  0
LINE
  8
_a-1_
  6
CONTINUOUS
 62
    7
 10
196.10328650093356
 20
-14.470975621722602
 11
199.10328650093356
 21
-14.470975621722602
  0
LINE
  8
_a-1_
  6
CONTINUOUS
 62
    7
 10
199.10328650093356
 20
-14.470975621722602
 11
200.60328650093356
 21
-8.4709756217226015
  0
LINE
  8
_a-1_
  6
CONTINUOUS
 62
    7
 10
191.60328650093356
 20
-8.4709756217226015
 11
194.60328650093356
 21
-8.4709756217226015
  0
LINE
  8
_a-1_
  6
CONTINUOUS
 62
    7
 10
200.60328650093356
 20
-8.4709756217226015
 11
210.33306050093546
 21
-8.4709756217226015
  0
LINE
  8
_4-1_
  6
CONTINUOUS
 62
    7
 10
232.23305750093641
 20
13.429021378277014
 11
210.33306050093546
 21
-8.4709756217226015
  0
LINE
  8
_a-1_
  6
DASHED1
 62
    3
 10
-10.896713499066436
 20
-14.470975621722602
 11
-12.396713499066436
 21
-8.4709756217226015
  0
LINE
  8
_a-1_
  6
DASHED1
 62
    3
 10
-10.896713499066436
 20
-14.470975621722602
 11
-7.8967134990664363
 21
-14.470975621722602
  0
LINE
  8
_a-1_
  6
DASHED1
 62
    3
 10
-7.8967134990664363
 20
-14.470975621722602
 11
-6.3967134990664363
 21
-8.4709756217226015
  0
LINE
  8
_a-1_
  6
DASHED1
 62
    3
 10
-15.396713499066436
 20
-8.4709756217226015
 11
-12.396713499066436
 21
-8.4709756217226015
  0
LINE
  8
_a-1_
  6
DASHED1
 62
    3
 10
-1.8967134990664363
 20
-14.470975621722602
 11
-3.3967134990664363
 21
-8.4709756217226015
  0
LINE
  8
_a-1_
  6
DASHED1
 62
    3
 10
-1.8967134990664363
 20
-14.470975621722602
 11
1.1032865009335637
 21
-14.470975621722602
  0
LINE
  8
_a-1_
  6
DASHED1
 62
    3
 10
1.1032865009335637
 20
-14.470975621722602
 11
2.6032865009335637
 21
-8.4709756217226015
  0
LINE
  8
_a-1_
  6
DASHED1
 62
    3
 10
-6.3967134990664363
 20
-8.4709756217226015
 11
-3.3967134990664363
 21
-8.4709756217226015
  0
LINE
  8
_a-1_
  6
DASHED1
 62
    3
 10
7.1032865009335637
 20
-14.470975621722602
 11
5.6032865009335637
 21
-8.4709756217226015
  0
LINE
  8
_a-1_
  6
DASHED1
 62
    3
 10
7.1032865009335637
 20
-14.470975621722602
 11
10.103286500933564
 21
-14.470975621722602
  0
LINE
  8
_a-1_
  6
DASHED1
 62
    3
 10
10.103286500933564
 20
-14.470975621722602
 11
11.603286500933564
 21
-8.4709756217226015
  0
LINE
  8
_a-1_
  6
DASHED1
 62
    3
 10
2.6032865009335637
 20
-8.4709756217226015
 11
5.6032865009335637
 21
-8.4709756217226015
  0
LINE
  8
_a-1_
  6
DASHED1
 62
    3
 10
16.103286500933564
 20
-14.470975621722602
 11
14.603286500933564
 21
-8.4709756217226015
  0
LINE
  8
_a-1_
  6
DASHED1
 62
    3
 10
16.103286500933564
 20
-14.470975621722602
 11
19.103286500933564
 21
-14.470975621722602
  0
LINE
  8
_a-1_
  6
DASHED1
 62
    3
 10
19.103286500933564
 20
-14.470975621722602
 11
20.603286500933564
 21
-8.4709756217226015
  0
LINE
  8
_a-1_
  6
DASHED1
 62
    3
 10
11.603286500933564
 20
-8.4709756217226015
 11
14.603286500933564
 21
-8.4709756217226015
  0
LINE
  8
_a-1_
  6
DASHED1
 62
    3
 10
25.103286500933564
 20
-14.470975621722602
 11
23.603286500933564
 21
-8.4709756217226015
  0
LINE
  8
_a-1_
  6
DASHED1
 62
    3
 10
25.103286500933564
 20
-14.470975621722602
 11
28.103286500933564
 21
-14.470975621722602
  0
LINE
  8
_a-1_
  6
DASHED1
 62
    3
 10
28.103286500933564
 20
-14.470975621722602
 11
29.603286500933564
 21
-8.4709756217226015
  0
LINE
  8
_a-1_
  6
DASHED1
 62
    3
 10
20.603286500933564
 20
-8.4709756217226015
 11
23.603286500933564
 21
-8.4709756217226015
  0
LINE
  8
_a-1_
  6
DASHED1
 62
    3
 10
34.103286500933564
 20
-14.470975621722602
 11
32.603286500933564
 21
-8.4709756217226015
  0
LINE
  8
_a-1_
  6
DASHED1
 62
    3
 10
34.103286500933564
 20
-14.470975621722602
 11
37.103286500933564
 21
-14.470975621722602
  0
LINE
  8
_a-1_
  6
DASHED1
 62
    3
 10
37.103286500933564
 20
-14.470975621722602
 11
38.603286500933564
 21
-8.4709756217226015
  0
LINE
  8
_a-1_
  6
DASHED1
 62
    3
 10
29.603286500933564
 20
-8.4709756217226015
 11
32.603286500933564
 21
-8.4709756217226015
  0
LINE
  8
_a-1_
  6
DASHED1
 62
    3
 10
43.103286500933564
 20
-14.470975621722602
 11
41.603286500933564
 21
-8.4709756217226015
  0
LINE
  8
_a-1_
  6
DASHED1
 62
    3
 10
38.603286500933564
 20
-8.4709756217226015
 11
41.603286500933564
 21
-8.4709756217226015
  0
LINE
  8
_a-1_
  6
DASHED1
 62
    3
 10
91.103286500933564
 20
-14.470975621722602
 11
92.603286500933564
 21
-8.4709756217226015
  0
LINE
  8
_a-1_
  6
DASHED1
 62
    3
 10
97.103286500933564
 20
-14.470975621722602
 11
95.603286500933564
 21
-8.4709756217226015
  0
LINE
  8
_a-1_
  6
DASHED1
 62
    3
 10
97.103286500933564
 20
-14.470975621722602
 11
100.10328650093356
 21
-14.470975621722602
  0
LINE
  8
_a-1_
  6
DASHED1
 62
    3
 10
100.10328650093356
 20
-14.470975621722602
 11
101.60328650093356
 21
-8.4709756217226015
  0
LINE
  8
_a-1_
  6
DASHED1
 62
    3
 10
92.603286500933564
 20
-8.4709756217226015
 11
95.603286500933564
 21
-8.4709756217226015
  0
LINE
  8
_a-1_
  6
DASHED1
 62
    3
 10
106.10328650093356
 20
-14.470975621722602
 11
104.60328650093356
 21
-8.4709756217226015
  0
LINE
  8
_a-1_
  6
DASHED1
 62
    3
 10
106.10328650093356
 20
-14.470975621722602
 11
109.10328650093356
 21
-14.470975621722602
  0
LINE
  8
_a-1_
  6
DASHED1
 62
    3
 10
109.10328650093356
 20
-14.470975621722602
 11
110.60328650093356
 21
-8.4709756217226015
  0
LINE
  8
_a-1_
  6
DASHED1
 62
    3
 10
101.60328650093356
 20
-8.4709756217226015
 11
104.60328650093356
 21
-8.4709756217226015
  0
LINE
  8
_a-1_
  6
DASHED1
 62
    3
 10
115.10328650093356
 20
-14.470975621722602
 11
113.60328650093356
 21
-8.4709756217226015
  0
LINE
  8
_a-1_
  6
DASHED1
 62
    3
 10
115.10328650093356
 20
-14.470975621722602
 11
118.10328650093356
 21
-14.470975621722602
  0
LINE
  8
_a-1_
  6
DASHED1
 62
    3
 10
118.10328650093356
 20
-14.470975621722602
 11
119.60328650093356
 21
-8.4709756217226015
  0
LINE
  8
_a-1_
  6
DASHED1
 62
    3
 10
110.60328650093356
 20
-8.4709756217226015
 11
113.60328650093356
 21
-8.4709756217226015
  0
LINE
  8
_a-1_
  6
DASHED1
 62
    3
 10
124.10328650093356
 20
-14.470975621722602
 11
122.60328650093356
 21
-8.4709756217226015
  0
LINE
  8
_a-1_
  6
DASHED1
 62
    3
 10
119.60328650093356
 20
-8.4709756217226015
 11
122.60328650093356
 21
-8.4709756217226015
  0
LINE
  8
_a-1_
  6
CONTINUOUS
 62
    7
 10
178.10328650093356
 20
-14.470975621722602
 11
181.10328650093356
 21
-14.470975621722602
  0
LINE
  8
_a-1_
  6
CONTINUOUS
 62
    7
 10
172.10328650093356
 20
-14.470975621722602
 11
173.60328650093356
 21
-8.4709756217226015
  0
LINE
  8
_a-1_
  6
CONTINUOUS
 62
    7
 10
178.10328650093356
 20
-14.470975621722602
 11
176.60328650093356
 21
-8.4709756217226015
  0
LINE
  8
_a-1_
  6
CONTINUOUS
 62
    7
 10
173.60328650093356
 20
-8.4709756217226015
 11
176.60328650093356
 21
-8.4709756217226015
  0
LINE
  8
_a-1_
  6
CONTINUOUS
 62
    7
 10
169.10328650093356
 20
-14.470975621722602
 11
172.10328650093356
 21
-14.470975621722602
  0
LINE
  8
_a-1_
  6
CONTINUOUS
 62
    7
 10
163.10328650093356
 20
-14.470975621722602
 11
164.60328650093356
 21
-8.4709756217226015
  0
LINE
  8
_a-1_
  6
CONTINUOUS
 62
    7
 10
169.10328650093356
 20
-14.470975621722602
 11
167.60328650093356
 21
-8.4709756217226015
  0
LINE
  8
_a-1_
  6
CONTINUOUS
 62
    7
 10
164.60328650093356
 20
-8.4709756217226015
 11
167.60328650093356
 21
-8.4709756217226015
  0
LINE
  8
_a-1_
  6
CONTINUOUS
 62
    7
 10
160.10328650093356
 20
-14.470975621722602
 11
163.10328650093356
 21
-14.470975621722602
  0
LINE
  8
_a-1_
  6
CONTINUOUS
 62
    7
 10
154.10328650093356
 20
-14.470975621722602
 11
155.60328650093356
 21
-8.4709756217226015
  0
LINE
  8
_a-1_
  6
CONTINUOUS
 62
    7
 10
160.10328650093356
 20
-14.470975621722602
 11
158.60328650093356
 21
-8.4709756217226015
  0
LINE
  8
_a-1_
  6
CONTINUOUS
 62
    7
 10
155.60328650093356
 20
-8.4709756217226015
 11
158.60328650093356
 21
-8.4709756217226015
  0
LINE
  8
_a-1_
  6
CONTINUOUS
 62
    7
 10
151.10328650093356
 20
-14.470975621722602
 11
154.10328650093356
 21
-14.470975621722602
  0
LINE
  8
_a-1_
  6
CONTINUOUS
 62
    7
 10
151.10328650093356
 20
-14.470975621722602
 11
149.60328650093356
 21
-8.4709756217226015
  0
LINE
  8
_4-1_
  6
CONTINUOUS
 62
    7
 10
149.60361950064197
 20
-29.470975621721237
 11
197.30361983423813
 21
-29.470975621721237
  0
LINE
  8
_4-1_
  6
CONTINUOUS
 62
    7
 10
-189.09638093240574
 20
-29.470975621721237
 11
-15.396380499357349
 21
-29.470975621721237
  0
LINE
  8
_a-1_
  6
CONTINUOUS
 62
    7
 10
-61.896713499066436
 20
-14.470975621722602
 11
-60.396713499066436
 21
-8.4709756217226015
  0
LINE
  8
_a-1_
  6
CONTINUOUS
 62
    7
 10
-55.896713499066436
 20
-14.470975621722602
 11
-57.396713499066436
 21
-8.4709756217226015
  0
LINE
  8
_a-1_
  6
CONTINUOUS
 62
    7
 10
-55.896713499066436
 20
-14.470975621722602
 11
-52.896713499066436
 21
-14.470975621722602
  0
LINE
  8
_a-1_
  6
CONTINUOUS
 62
    7
 10
-52.896713499066436
 20
-14.470975621722602
 11
-51.396713499066436
 21
-8.4709756217226015
  0
LINE
  8
_a-1_
  6
CONTINUOUS
 62
    7
 10
-60.396713499066436
 20
-8.4709756217226015
 11
-57.396713499066436
 21
-8.4709756217226015
  0
LINE
  8
_a-1_
  6
CONTINUOUS
 62
    7
 10
-46.896713499066436
 20
-14.470975621722602
 11
-48.396713499066436
 21
-8.4709756217226015
  0
LINE
  8
_a-1_
  6
CONTINUOUS
 62
    7
 10
-46.896713499066436
 20
-14.470975621722602
 11
-43.896713499066436
 21
-14.470975621722602
  0
LINE
  8
_a-1_
  6
CONTINUOUS
 62
    7
 10
-43.896713499066436
 20
-14.470975621722602
 11
-42.396713499066436
 21
-8.4709756217226015
  0
LINE
  8
_a-1_
  6
CONTINUOUS
 62
    7
 10
-51.396713499066436
 20
-8.4709756217226015
 11
-48.396713499066436
 21
-8.4709756217226015
  0
LINE
  8
_a-1_
  6
CONTINUOUS
 62
    7
 10
-37.896713499066436
 20
-14.470975621722602
 11
-39.396713499066436
 21
-8.4709756217226015
  0
LINE
  8
_a-1_
  6
CONTINUOUS
 62
    7
 10
-37.896713499066436
 20
-14.470975621722602
 11
-34.896713499066436
 21
-14.470975621722602
  0
LINE
  8
_a-1_
  6
CONTINUOUS
 62
    7
 10
-34.896713499066436
 20
-14.470975621722602
 11
-33.396713499066436
 21
-8.4709756217226015
  0
LINE
  8
_a-1_
  6
CONTINUOUS
 62
    7
 10
-42.396713499066436
 20
-8.4709756217226015
 11
-39.396713499066436
 21
-8.4709756217226015
  0
LINE
  8
_a-1_
  6
CONTINUOUS
 62
    7
 10
-28.896713499066436
 20
-14.470975621722602
 11
-30.396713499066436
 21
-8.4709756217226015
  0
LINE
  8
_a-1_
  6
CONTINUOUS
 62
    7
 10
-28.896713499066436
 20
-14.470975621722602
 11
-25.896713499066436
 21
-14.470975621722602
  0
LINE
  8
_a-1_
  6
CONTINUOUS
 62
    7
 10
-25.896713499066436
 20
-14.470975621722602
 11
-24.396713499066436
 21
-8.4709756217226015
  0
LINE
  8
_a-1_
  6
CONTINUOUS
 62
    7
 10
-33.396713499066436
 20
-8.4709756217226015
 11
-30.396713499066436
 21
-8.4709756217226015
  0
LINE
  8
_a-1_
  6
CONTINUOUS
 62
    7
 10
-19.896713499066436
 20
-14.470975621722602
 11
-21.396713499066436
 21
-8.4709756217226015
  0
LINE
  8
_a-1_
  6
CONTINUOUS
 62
    7
 10
-19.896713499066436
 20
-14.470975621722602
 11
-16.896713499066436
 21
-14.470975621722602
  0
LINE
  8
_a-1_
  6
CONTINUOUS
 62
    7
 10
-16.896713499066436
 20
-14.470975621722602
 11
-15.396713499066436
 21
-8.4709756217226015
  0
LINE
  8
_a-1_
  6
CONTINUOUS
 62
    7
 10
-24.396713499066436
 20
-8.4709756217226015
 11
-21.396713499066436
 21
-8.4709756217226015
  0
LINE
  8
_a-1_
  6
CONTINUOUS
 62
    7
 10
-70.896713499066436
 20
-14.470975621722602
 11
-69.396713499066436
 21
-8.4709756217226015
  0
LINE
  8
_a-1_
  6
CONTINUOUS
 62
    7
 10
-64.896713499066436
 20
-14.470975621722602
 11
-66.396713499066436
 21
-8.4709756217226015
  0
LINE
  8
_a-1_
  6
CONTINUOUS
 62
    7
 10
-64.896713499066436
 20
-14.470975621722602
 11
-61.896713499066436
 21
-14.470975621722602
  0
LINE
  8
_a-1_
  6
CONTINUOUS
 62
    7
 10
-69.396713499066436
 20
-8.4709756217226015
 11
-66.396713499066436
 21
-8.4709756217226015
  0
LINE
  8
_a-1_
  6
CONTINUOUS
 62
    7
 10
-79.896713499066436
 20
-14.470975621722602
 11
-78.396713499066436
 21
-8.4709756217226015
  0
LINE
  8
_a-1_
  6
CONTINUOUS
 62
    7
 10
-73.896713499066436
 20
-14.470975621722602
 11
-75.396713499066436
 21
-8.4709756217226015
  0
LINE
  8
_a-1_
  6
CONTINUOUS
 62
    7
 10
-73.896713499066436
 20
-14.470975621722602
 11
-70.896713499066436
 21
-14.470975621722602
  0
LINE
  8
_a-1_
  6
CONTINUOUS
 62
    7
 10
-78.396713499066436
 20
-8.4709756217226015
 11
-75.396713499066436
 21
-8.4709756217226015
  0
LINE
  8
_a-1_
  6
CONTINUOUS
 62
    7
 10
-88.896713499066436
 20
-14.470975621722602
 11
-87.396713499066436
 21
-8.4709756217226015
  0
LINE
  8
_a-1_
  6
CONTINUOUS
 62
    7
 10
-82.896713499066436
 20
-14.470975621722602
 11
-84.396713499066436
 21
-8.4709756217226015
  0
LINE
  8
_a-1_
  6
CONTINUOUS
 62
    7
 10
-82.896713499066436
 20
-14.470975621722602
 11
-79.896713499066436
 21
-14.470975621722602
  0
LINE
  8
_a-1_
  6
CONTINUOUS
 62
    7
 10
-87.396713499066436
 20
-8.4709756217226015
 11
-84.396713499066436
 21
-8.4709756217226015
  0
LINE
  8
_a-1_
  6
CONTINUOUS
 62
    7
 10
-97.896713499066436
 20
-14.470975621722602
 11
-96.396713499066436
 21
-8.4709756217226015
  0
LINE
  8
_a-1_
  6
CONTINUOUS
 62
    7
 10
-91.896713499066436
 20
-14.470975621722602
 11
-93.396713499066436
 21
-8.4709756217226015
  0
LINE
  8
_a-1_
  6
CONTINUOUS
 62
    7
 10
-91.896713499066436
 20
-14.470975621722602
 11
-88.896713499066436
 21
-14.470975621722602
  0
LINE
  8
_a-1_
  6
CONTINUOUS
 62
    7
 10
-96.396713499066436
 20
-8.4709756217226015
 11
-93.396713499066436
 21
-8.4709756217226015
  0
LINE
  8
_a-1_
  6
CONTINUOUS
 62
    7
 10
-106.89671349906644
 20
-14.470975621722602
 11
-105.39671349906644
 21
-8.4709756217226015
  0
LINE
  8
_a-1_
  6
CONTINUOUS
 62
    7
 10
-100.89671349906644
 20
-14.470975621722602
 11
-102.39671349906644
 21
-8.4709756217226015
  0
LINE
  8
_a-1_
  6
CONTINUOUS
 62
    7
 10
-100.89671349906644
 20
-14.470975621722602
 11
-97.896713499066436
 21
-14.470975621722602
  0
LINE
  8
_a-1_
  6
CONTINUOUS
 62
    7
 10
-105.39671349906644
 20
-8.4709756217226015
 11
-102.39671349906644
 21
-8.4709756217226015
  0
LINE
  8
_a-1_
  6
CONTINUOUS
 62
    7
 10
-115.89671349906644
 20
-14.470975621722602
 11
-114.39671349906644
 21
-8.4709756217226015
  0
LINE
  8
_a-1_
  6
CONTINUOUS
 62
    7
 10
-109.89671349906644
 20
-14.470975621722602
 11
-111.39671349906644
 21
-8.4709756217226015
  0
LINE
  8
_a-1_
  6
CONTINUOUS
 62
    7
 10
-109.89671349906644
 20
-14.470975621722602
 11
-106.89671349906644
 21
-14.470975621722602
  0
LINE
  8
_a-1_
  6
CONTINUOUS
 62
    7
 10
-114.39671349906644
 20
-8.4709756217226015
 11
-111.39671349906644
 21
-8.4709756217226015
  0
LINE
  8
_4-1_
  6
DASHED1
 62
    3
 10
-15.396380499357349
 20
-29.470975621721237
 11
44.603619500642651
 21
-29.470975621721237
  0
LINE
  8
_4-1_
  6
DASHED1
 62
    3
 10
89.603619500641969
 20
-29.470975621721237
 11
149.60361950064197
 21
-29.470975621721237
  0
LINE
  8
_0-1_
  6
CONTINUOUS
 62
    7
 10
44.603619500642651
 20
-29.470975621721237
 11
89.603619500641969
 21
-29.470975621721237
  0
LINE
  8
_a-1_
  6
DASHED1
 62
    3
 10
43.103286500933564
 20
-14.470975621722602
 11
44.603619500642651
 21
-14.470975621722602
  0
LINE
  8
_a-1_
  6
DASHED1
 62
    3
 10
89.603619500641969
 20
-14.470975621722602
 11
91.103286500933564
 21
-14.470975621722602
  0
LINE
  8
_a-1_
  6
CONTINUOUS
 62
    7
 10
46.103286500933564
 20
-14.470975621722602
 11
47.603286500933564
 21
-8.4709756217226015
  0
LINE
  8
_a-1_
  6
CONTINUOUS
 62
    7
 10
52.103286500933564
 20
-14.470975621722602
 11
50.603286500933564
 21
-8.4709756217226015
  0
LINE
  8
_a-1_
  6
CONTINUOUS
 62
    7
 10
52.103286500933564
 20
-14.470975621722602
 11
55.103286500933564
 21
-14.470975621722602
  0
LINE
  8
_a-1_
  6
CONTINUOUS
 62
    7
 10
55.103286500933564
 20
-14.470975621722602
 11
56.603286500933564
 21
-8.4709756217226015
  0
LINE
  8
_a-1_
  6
CONTINUOUS
 62
    7
 10
47.603286500933564
 20
-8.4709756217226015
 11
50.603286500933564
 21
-8.4709756217226015
  0
LINE
  8
_a-1_
  6
CONTINUOUS
 62
    7
 10
61.103286500933564
 20
-14.470975621722602
 11
59.603286500933564
 21
-8.4709756217226015
  0
LINE
  8
_a-1_
  6
CONTINUOUS
 62
    7
 10
61.103286500933564
 20
-14.470975621722602
 11
64.103286500933564
 21
-14.470975621722602
  0
LINE
  8
_a-1_
  6
CONTINUOUS
 62
    7
 10
64.103286500933564
 20
-14.470975621722602
 11
65.603286500933564
 21
-8.4709756217226015
  0
LINE
  8
_a-1_
  6
CONTINUOUS
 62
    7
 10
56.603286500933564
 20
-8.4709756217226015
 11
59.603286500933564
 21
-8.4709756217226015
  0
LINE
  8
_a-1_
  6
CONTINUOUS
 62
    7
 10
70.103286500933564
 20
-14.470975621722602
 11
68.603286500933564
 21
-8.4709756217226015
  0
LINE
  8
_a-1_
  6
CONTINUOUS
 62
    7
 10
70.103286500933564
 20
-14.470975621722602
 11
73.103286500933564
 21
-14.470975621722602
  0
LINE
  8
_a-1_
  6
CONTINUOUS
 62
    7
 10
73.103286500933564
 20
-14.470975621722602
 11
74.603286500933564
 21
-8.4709756217226015
  0
LINE
  8
_a-1_
  6
CONTINUOUS
 62
    7
 10
65.603286500933564
 20
-8.4709756217226015
 11
68.603286500933564
 21
-8.4709756217226015
  0
LINE
  8
_a-1_
  6
CONTINUOUS
 62
    7
 10
79.103286500933564
 20
-14.470975621722602
 11
77.603286500933564
 21
-8.4709756217226015
  0
LINE
  8
_a-1_
  6
CONTINUOUS
 62
    7
 10
79.103286500933564
 20
-14.470975621722602
 11
82.103286500933564
 21
-14.470975621722602
  0
LINE
  8
_a-1_
  6
CONTINUOUS
 62
    7
 10
82.103286500933564
 20
-14.470975621722602
 11
83.603286500933564
 21
-8.4709756217226015
  0
LINE
  8
_a-1_
  6
CONTINUOUS
 62
    7
 10
74.603286500933564
 20
-8.4709756217226015
 11
77.603286500933564
 21
-8.4709756217226015
  0
LINE
  8
_a-1_
  6
CONTINUOUS
 62
    7
 10
88.103286500933564
 20
-14.470975621722602
 11
86.603286500933564
 21
-8.4709756217226015
  0
LINE
  8
_a-1_
  6
CONTINUOUS
 62
    7
 10
83.603286500933564
 20
-8.4709756217226015
 11
86.603286500933564
 21
-8.4709756217226015
  0
LINE
  8
_a-1_
  6
CONTINUOUS
 62
    7
 10
44.603619500642651
 20
-14.470975621722602
 11
46.103286500933564
 21
-14.470975621722602
  0
LINE
  8
_a-1_
  6
CONTINUOUS
 62
    7
 10
88.103286500933564
 20
-14.470975621722602
 11
89.603619500641969
 21
-14.470975621722602
  0
LINE
  8
_a-1_
  6
DASHED1
 62
    3
 10
124.10328650093356
 20
-14.470975621722602
 11
127.10328650093356
 21
-14.470975621722602
  0
LINE
  8
_a-1_
  6
DASHED1
 62
    3
 10
127.10328650093356
 20
-14.470975621722602
 11
128.60328650093356
 21
-8.4709756217226015
  0
LINE
  8
_a-1_
  6
DASHED1
 62
    3
 10
133.10328650093356
 20
-14.470975621722602
 11
131.60328650093356
 21
-8.4709756217226015
  0
LINE
  8
_a-1_
  6
DASHED1
 62
    3
 10
128.60328650093356
 20
-8.4709756217226015
 11
131.60328650093356
 21
-8.4709756217226015
  0
LINE
  8
_a-1_
  6
DASHED1
 62
    3
 10
133.10328650093356
 20
-14.470975621722602
 11
136.10328650093356
 21
-14.470975621722602
  0
LINE
  8
_a-1_
  6
DASHED1
 62
    3
 10
136.10328650093356
 20
-14.470975621722602
 11
137.60328650093356
 21
-8.4709756217226015
  0
LINE
  8
_a-1_
  6
DASHED1
 62
    3
 10
142.10328650093356
 20
-14.470975621722602
 11
140.60328650093356
 21
-8.4709756217226015
  0
LINE
  8
_a-1_
  6
DASHED1
 62
    3
 10
137.60328650093356
 20
-8.4709756217226015
 11
140.60328650093356
 21
-8.4709756217226015
  0
LINE
  8
_a-1_
  6
DASHED1
 62
    3
 10
142.10328650093356
 20
-14.470975621722602
 11
145.10328650093356
 21
-14.470975621722602
  0
LINE
  8
_a-1_
  6
DASHED1
 62
    3
 10
145.10328650093356
 20
-14.470975621722602
 11
146.60328650093356
 21
-8.4709756217226015
  0
LINE
  8
_a-1_
  6
DASHED1
 62
    3
 10
146.60328650093356
 20
-8.4709756217226015
 11
149.60328650093356
 21
-8.4709756217226015
  0
ENDBLK
  0
BLOCK
  2
-004-M4T_5_
 70
   64
 10
0
 20
0
 30
0
  0
LINE
  8
_0-1_
  6
CONTINUOUS
 62
    7
 10
-5.9999999999999991
 20
3.692999999999997
 11
-5.9999999999999991
 21
4.3349999999999929
  0
LINE
  8
_0-1_
  6
CONTINUOUS
 62
    7
 10
6
 20
3.692999999999997
 11
6
 21
4.3349999999999929
  0
ARC
  8
_0-1_
  6
CONTINUOUS
 62
    7
 10
0.0000000000000006
 20
-1.106999999999986
 40
8.1000000000000014
 50
42.205444335937507
 51
137.79454040527344
  0
LINE
  8
_0-1_
  6
CONTINUOUS
 62
    7
 10
-5.9999999999999991
 20
3.6930000000000049
 11
6
 21
3.6930000000000049
  0
ENDBLK
  0
BLOCK
  2
-005-OTK-NT12-H
 70
   64
 10
0
 20
0
 30
0
  0
LINE
  8
_0-1_
  6
CONTINUOUS
 62
    7
 10
18.951176992299207
 20
121.91680690375482
 11
18.951176992299207
 21
-2.0831930962469798
  0
LINE
  8
_0-1_
  6
CONTINUOUS
 62
    7
 10
-49.548823007698857
 20
109.91680690375431
 11
-49.548823007698857
 21
121.91680690375482
  0
LINE
  8
_0-1_
  6
CONTINUOUS
 62
    7
 10
-49.548823007700562
 20
121.91680690375482
 11
50.45117699229921
 21
121.91680690375482
  0
LINE
  8
_0-1_
  6
DASHED1
 62
    3
 10
36.951176992299082
 20
121.91680690375482
 11
36.951176992299082
 21
116.9168069037534
  0
LINE
  8
_0-1_
  6
DASHED1
 62
    3
 10
43.951176992299111
 20
121.91680690375482
 11
43.951176992299111
 21
116.9168069037534
  0
LINE
  8
_0-1_
  6
DASHED1
 62
    3
 10
35.951176992299096
 20
121.91680690375482
 11
35.951176992299096
 21
116.9168069037534
  0
LINE
  8
_0-1_
  6
DASHED1
 62
    3
 10
44.951176992299096
 20
121.91680690375482
 11
44.951176992299096
 21
116.9168069037534
  0
LINE
  8
_0-1_
  6
CONTINUOUS
 62
    7
 10
-49.548823007701245
 20
109.91680690375362
 11
-49.548823007701245
 21
121.91680690375345
  0
LINE
  8
_0-1_
  6
DASHED1
 62
    3
 10
-36.048823007701117
 20
121.91680690375482
 11
-36.048823007701117
 21
116.9168069037534
  0
LINE
  8
_0-1_
  6
DASHED1
 62
    3
 10
-43.048823007701145
 20
121.91680690375482
 11
-43.048823007701145
 21
116.9168069037534
  0
LINE
  8
_0-1_
  6
DASHED1
 62
    3
 10
-35.048823007701131
 20
121.91680690375482
 11
-35.048823007701131
 21
116.9168069037534
  0
LINE
  8
_0-1_
  6
DASHED1
 62
    3
 10
-44.048823007701131
 20
121.91680690375482
 11
-44.048823007701131
 21
116.9168069037534
  0
LINE
  8
_0-1_
  6
CONTINUOUS
 62
    7
 10
-18.048823007700566
 20
121.91680690375345
 11
-18.048823007700566
 21
-2.0831930962466387
  0
LINE
  8
_0-1_
  6
CONTINUOUS
 62
    7
 10
18.951176992299207
 20
-22.083193096244138
 11
18.951176992299207
 21
-92.083203700816966
  0
LINE
  8
_0-1_
  6
CONTINUOUS
 62
    7
 10
-18.048823007700566
 20
-22.083193096244138
 11
-18.048823007700566
 21
-92.083203700816966
  0
LINE
  8
_0-1_
  6
DASHED1
 62
    3
 10
-18.048823007700566
 20
-110.08319309704618
 11
18.951176992299207
 21
-110.08319309704618
  0
LINE
  8
_0-1_
  6
DASHED1
 62
    3
 10
18.951176992299207
 20
-110.08319309624767
 11
18.951176992299207
 21
-92.083203700816966
  0
LINE
  8
_0-1_
  6
DASHED1
 62
    3
 10
-18.048823007700566
 20
-110.08319309624767
 11
-18.048823007700566
 21
-92.083203700816966
  0
LINE
  8
_0-1_
  6
DASHED1
 62
    3
 10
-18.048823007699372
 20
-94.583193213947425
 11
18.951176992298013
 21
-94.583193213947425
  0
LINE
  8
_0-1_
  6
DASHED1
 62
    3
 10
18.951176992299207
 20
-2.0831930962469798
 11
18.951176992299207
 21
-22.083193096243797
  0
LINE
  8
_0-1_
  6
DASHED1
 62
    3
 10
-18.048823007700566
 20
-2.0831930962466387
 11
-18.048823007700566
 21
-22.083193096243797
  0
LINE
  8
_0-1_
  6
DASHED1
 62
    3
 10
-2.1725695616690395
 20
-2.0831930962466387
 11
3.0749235462672964
 21
-2.0831930962468093
  0
LINE
  8
_0-1_
  6
DASHED1
 62
    3
 10
-2.1725695616703611
 20
-22.083193096243797
 11
3.0749235462672964
 21
-22.083193096244138
  0
LINE
  8
_0-1_
  6
CONTINUOUS
 62
    7
 10
-2.1725695616690395
 20
-2.0831930962466387
 11
-20.048823007700793
 21
-2.0831930962466387
  0
LINE
  8
_0-1_
  6
CONTINUOUS
 62
    7
 10
-20.048823007700793
 20
-2.0831930962466387
 11
-20.048823007700793
 21
-22.083193096244138
  0
LINE
  8
_0-1_
  6
CONTINUOUS
 62
    7
 10
-20.048823007700793
 20
-22.083193096244138
 11
-2.1725695616703611
 21
-22.083193096244138
  0
LINE
  8
_0-1_
  6
CONTINUOUS
 62
    7
 10
3.0749235462672964
 20
-22.083193096244138
 11
20.951176992299434
 21
-22.083193096244138
  0
LINE
  8
_0-1_
  6
CONTINUOUS
 62
    7
 10
20.951176992299434
 20
-22.083193096244138
 11
20.951176992299434
 21
-2.0831930962469798
  0
LINE
  8
_0-1_
  6
CONTINUOUS
 62
    7
 10
20.951176992299434
 20
-2.0831930962469798
 11
3.0749235462672964
 21
-2.0831930962469798
  0
CIRCLE
  8
_0-1_
  6
CONTINUOUS
 62
    7
 10
0.4511769922989792
 20
-12.083193096246752
 40
4.4999999999988063
  0
LINE
  8
_0-1_
  6
CONTINUOUS
 62
    7
 10
-1.9050529024147416
 20
-15.91701373410222
 11
-1.5476046615701513
 21
-26.152992094483203
  0
LINE
  8
_0-1_
  6
CONTINUOUS
 62
    7
 10
-2.3670982530295142
 20
-16.512620219653591
 11
-2.0473000752481774
 21
-25.670441838011037
  0
LINE
  8
_0-1_
  6
CONTINUOUS
 62
    7
 10
-2.3670982530295142
 20
-16.512620219653591
 11
-1.9050529024146563
 21
-15.917013734104692
  0
LINE
  8
_0-1_
  6
CONTINUOUS
 62
    7
 10
2.807405447013263
 20
-15.91701373410222
 11
2.4499572061686727
 21
-26.152992094483203
  0
LINE
  8
_0-1_
  6
CONTINUOUS
 62
    7
 10
3.2694507976280356
 20
-16.512620219653591
 11
2.9496526198466988
 21
-25.670441838011037
  0
LINE
  8
_0-1_
  6
CONTINUOUS
 62
    7
 10
3.2694507976280356
 20
-16.512620219653591
 11
2.8074054470131777
 21
-15.917013734104692
  0
ARC
  8
_0-1_
  6
CONTINUOUS
 62
    7
 10
0.4511769922993202
 20
-25.583193096247946
 40
2.5001109999055302
 50
182.00000000015717
 51
357.99999999999534
  0
ARC
  8
_0-1_
  6
CONTINUOUS
 62
    7
 10
0.4511769922993202
 20
-26.083193096248003
 40
1.9999999999999716
 50
182.00000013845937
 51
357.99999842183075
  0
ARC
  8
_0-1_
  6
CONTINUOUS
 62
    7
 10
0.4511769922989792
 20
-12.083193096246752
 40
5.2500000000003411
 50
302.46702557119556
 51
57.532961169688676
  0
ARC
  8
_0-1_
  6
CONTINUOUS
 62
    7
 10
0.4511769922989792
 20
-12.083193096246752
 40
5.2500000000003411
 50
122.46703883030847
 51
237.53296116970657
  0
LINE
  8
_0-1_
  6
CONTINUOUS
 62
    7
 10
-1.9050529024147416
 20
-8.2493724583912851
 11
-1.5476046615701513
 21
1.986605901989698
  0
LINE
  8
_0-1_
  6
CONTINUOUS
 62
    7
 10
-2.3670982530295142
 20
-7.6537659728399134
 11
-2.0473000752481774
 21
1.504055645517532
  0
LINE
  8
_0-1_
  6
CONTINUOUS
 62
    7
 10
2.807405447013263
 20
-8.2493724583912851
 11
2.4499572061686727
 21
1.986605901989698
  0
LINE
  8
_0-1_
  6
CONTINUOUS
 62
    7
 10
3.2694507976280356
 20
-7.6537659728399134
 11
2.9496526198466988
 21
1.504055645517532
  0
ARC
  8
_0-1_
  6
CONTINUOUS
 62
    7
 10
0.4511769922993202
 20
1.4168069037544413
 40
2.5001109999055302
 50
2.0000000000046847
 51
177.99999999984283
  0
ARC
  8
_0-1_
  6
CONTINUOUS
 62
    7
 10
0.4511769922993202
 20
1.9168069037544981
 40
1.9999999999999716
 50
2.0000015781692517
 51
177.99999986154063
  0
LINE
  8
_0-1_
  6
CONTINUOUS
 62
    7
 10
20.951176986880494
 20
12.916806903754384
 11
20.951176986880494
 21
32.916806903754349
  0
LINE
  8
_0-1_
  6
CONTINUOUS
 62
    7
 10
-20.048823003119498
 20
12.916806903754384
 11
-20.048823003119498
 21
32.916806903754349
  0
LINE
  8
_0-1_
  6
CONTINUOUS
 62
    7
 10
20.951176986880494
 20
32.916806903754349
 11
18.951176992299207
 21
32.916806903754349
  0
LINE
  8
_0-1_
  6
CONTINUOUS
 62
    7
 10
-18.048823007700566
 20
32.916806903754349
 11
-20.048823003119498
 21
32.916806903754349
  0
LINE
  8
_0-1_
  6
CONTINUOUS
 62
    7
 10
20.951176986880494
 20
12.916806903754384
 11
18.951176992299207
 21
12.916806903754384
  0
LINE
  8
_0-1_
  6
CONTINUOUS
 62
    7
 10
-18.048823007700566
 20
12.916806903754384
 11
-20.048823003119498
 21
12.916806903754384
  0
LINE
  8
_0-1_
  6
CONTINUOUS
 62
    7
 10
18.951176992299207
 20
106.50060841665892
 11
-18.048823007700566
 21
106.50060841665892
  0
LINE
  8
_0-1_
  6
CONTINUOUS
 62
    7
 10
-18.048823007700566
 20
-90.212125907245195
 11
18.951176992299207
 21
-90.212125907245195
  0
LINE
  8
_0-1_
  6
CONTINUOUS
 62
    7
 10
-18.048823007699543
 20
-82.912125904579966
 11
18.951176992298013
 21
-82.912125904579966
  0
INSERT
  2
-004-M4T_5_
  8
_0-1_
 10
18.489176986880491
 20
22.916806903752782
 41
-0.6666666666666666
 42
0.6666666666666666
 50
630
  0
LINE
  8
_0-1_
  6
CENTER1
 62
    4
 10
-11.449937563482667
 20
-12.083193096246752
 11
13.093234651682888
 21
-12.083193096246752
  0
LINE
  8
_0-1_
  6
CENTER1
 62
    4
 10
7.4435719420721504
 20
22.916806903752782
 11
25.209939121943076
 21
22.916806903752782
  0
INSERT
  2
-004-M4T_5_
  8
_0-1_
 10
-17.586824442281969
 20
22.916806903752782
 41
0.6666666666666666
 42
0.6666666666666666
 50
-630
  0
LINE
  8
_0-1_
  6
CENTER1
 62
    4
 10
-6.541219397473629
 20
22.916806903752782
 11
-24.307586577344555
 21
22.916806903752782
  0
LINE
  8
_0-1_
  6
CONTINUOUS
 62
    7
 10
18.951176992299207
 20
40.916806903754235
 11
-18.048823007700566
 21
40.916806903754235
  0
LINE
  8
_0-1_
  6
CONTINUOUS
 62
    7
 10
18.951176992299207
 20
7.9168069037542423
 11
-18.048823007700566
 21
7.9168069037542423
  0
LINE
  8
_0-1_
  6
DASHED1
 62
    3
 10
50.45117699229921
 20
116.91676919814776
 11
-49.548823007701245
 21
116.91676919814776
  0
LINE
  8
_0-1_
  6
CONTINUOUS
 62
    5
 10
18.951176992298098
 20
-79.083304096149732
 11
-18.048823007699671
 21
-79.083304096149732
  0
LINE
  8
_0-1_
  6
CONTINUOUS
 62
    5
 10
-18.048823007699713
 20
-78.083304096149789
 11
18.951176992298098
 21
-78.083304096149789
  0
LINE
  8
_0-1_
  6
CONTINUOUS
 62
    5
 10
18.951176992298098
 20
-76.083304096149732
 11
-18.048823007699671
 21
-76.083304096149732
  0
LINE
  8
_0-1_
  6
CONTINUOUS
 62
    5
 10
-18.048823007699713
 20
-75.083304096149789
 11
18.951176992298098
 21
-75.083304096149789
  0
LINE
  8
_0-1_
  6
CONTINUOUS
 62
    5
 10
18.951176992298098
 20
-73.083304096149732
 11
-18.048823007699671
 21
-73.083304096149732
  0
LINE
  8
_0-1_
  6
CONTINUOUS
 62
    5
 10
-18.048823007699713
 20
-72.083304096149789
 11
18.951176992298098
 21
-72.083304096149789
  0
LINE
  8
_0-1_
  6
CONTINUOUS
 62
    5
 10
18.951176992298098
 20
-70.083304096149732
 11
-18.048823007699671
 21
-70.083304096149732
  0
LINE
  8
_0-1_
  6
CONTINUOUS
 62
    5
 10
-18.048823007699713
 20
-69.083304096149789
 11
18.951176992298098
 21
-69.083304096149789
  0
LINE
  8
_0-1_
  6
CONTINUOUS
 62
    5
 10
18.951176992298098
 20
-67.083304096149732
 11
-18.048823007699671
 21
-67.083304096149732
  0
LINE
  8
_0-1_
  6
CONTINUOUS
 62
    5
 10
-18.048823007699713
 20
-66.083304096149789
 11
18.951176992298098
 21
-66.083304096149789
  0
LINE
  8
_0-1_
  6
CONTINUOUS
 62
    5
 10
18.951176992298098
 20
-64.083304096149732
 11
-18.048823007699671
 21
-64.083304096149732
  0
LINE
  8
_0-1_
  6
CONTINUOUS
 62
    5
 10
-18.048823007699713
 20
-63.083304096149782
 11
18.951176992298098
 21
-63.083304096149782
  0
LINE
  8
_0-1_
  6
CONTINUOUS
 62
    5
 10
18.951176992298098
 20
-61.083304096149725
 11
-18.048823007699671
 21
-61.083304096149725
  0
LINE
  8
_0-1_
  6
CONTINUOUS
 62
    5
 10
-18.048823007699713
 20
-60.083304096149782
 11
18.951176992298098
 21
-60.083304096149782
  0
LINE
  8
_0-1_
  6
CONTINUOUS
 62
    5
 10
18.951176992298098
 20
-58.083304096149725
 11
-18.048823007699671
 21
-58.083304096149725
  0
LINE
  8
_0-1_
  6
CONTINUOUS
 62
    5
 10
-18.048823007699713
 20
-57.083304096149782
 11
18.951176992298098
 21
-57.083304096149782
  0
LINE
  8
_0-1_
  6
CONTINUOUS
 62
    5
 10
18.951176992298098
 20
-55.083304096149725
 11
-18.048823007699671
 21
-55.083304096149725
  0
LINE
  8
_0-1_
  6
CONTINUOUS
 62
    5
 10
-18.048823007699713
 20
-54.083304096149782
 11
18.951176992298098
 21
-54.083304096149782
  0
LINE
  8
_0-1_
  6
CONTINUOUS
 62
    5
 10
18.951176992298098
 20
-52.083304096149725
 11
-18.048823007699671
 21
-52.083304096149725
  0
LINE
  8
_0-1_
  6
CONTINUOUS
 62
    5
 10
-18.048823007699713
 20
-51.083304096149782
 11
18.951176992298098
 21
-51.083304096149782
  0
LINE
  8
_0-1_
  6
CONTINUOUS
 62
    5
 10
18.951176992298098
 20
-49.083304096149725
 11
-18.048823007699671
 21
-49.083304096149725
  0
LINE
  8
_0-1_
  6
CONTINUOUS
 62
    5
 10
-18.048823007699713
 20
-48.083304096149782
 11
18.951176992298098
 21
-48.083304096149782
  0
LINE
  8
_0-1_
  6
CONTINUOUS
 62
    5
 10
18.951176992298098
 20
-46.083304096149725
 11
-18.048823007699671
 21
-46.083304096149725
  0
LINE
  8
_0-1_
  6
CONTINUOUS
 62
    5
 10
-18.048823007699713
 20
-45.083304096149782
 11
18.951176992298098
 21
-45.083304096149782
  0
LINE
  8
_0-1_
  6
CONTINUOUS
 62
    5
 10
18.951176992298098
 20
-43.083304096149725
 11
-18.048823007699671
 21
-43.083304096149725
  0
LINE
  8
_0-1_
  6
CONTINUOUS
 62
    5
 10
-18.048823007699713
 20
-42.083304096149782
 11
18.951176992298098
 21
-42.083304096149782
  0
LINE
  8
_0-1_
  6
CONTINUOUS
 62
    5
 10
18.951176992298098
 20
-40.083304096149725
 11
-18.048823007699671
 21
-40.083304096149725
  0
LINE
  8
_0-1_
  6
CONTINUOUS
 62
    5
 10
-18.048823007699713
 20
-39.083304096149782
 11
18.951176992298098
 21
-39.083304096149782
  0
LINE
  8
_0-1_
  6
CONTINUOUS
 62
    5
 10
18.951176992298098
 20
-37.083304096149725
 11
-18.048823007699671
 21
-37.083304096149725
  0
LINE
  8
_0-1_
  6
CONTINUOUS
 62
    5
 10
-18.048823007699713
 20
-36.083304096149782
 11
18.951176992298098
 21
-36.083304096149782
  0
LINE
  8
_0-1_
  6
CONTINUOUS
 62
    5
 10
18.951176992298098
 20
-34.083304096149725
 11
-18.048823007699671
 21
-34.083304096149725
  0
LINE
  8
_0-1_
  6
CONTINUOUS
 62
    5
 10
-18.048823007699713
 20
-33.083304096149782
 11
18.951176992298098
 21
-33.083304096149782
  0
LINE
  8
_0-1_
  6
CONTINUOUS
 62
    5
 10
18.951176992298098
 20
-31.083304096149725
 11
-18.048823007699671
 21
-31.083304096149725
  0
LINE
  8
_0-1_
  6
CONTINUOUS
 62
    5
 10
-18.048823007699713
 20
-30.083304096149782
 11
18.951176992298098
 21
-30.083304096149782
  0
LINE
  8
_0-1_
  6
CONTINUOUS
 62
    5
 10
18.951176992298098
 20
-28.083304096149725
 11
-18.048823007699671
 21
-28.083304096149725
  0
LINE
  8
_0-1_
  6
CONTINUOUS
 62
    5
 10
3.0050781310815999
 20
-24.083304096149782
 11
18.951176992298098
 21
-24.083304096149782
  0
LINE
  8
_0-1_
  6
CONTINUOUS
 62
    5
 10
18.951176992298098
 20
-25.083304096149725
 11
2.9701573615897807
 21
-25.083304096149725
  0
LINE
  8
_0-1_
  6
CONTINUOUS
 62
    5
 10
2.4512324914848271
 20
-27.083304096149782
 11
18.951176992298098
 21
-27.083304096149782
  0
LINE
  8
_0-1_
  6
CONTINUOUS
 62
    5
 10
-18.048823007699713
 20
-27.083304096149782
 11
-1.5487397529612288
 21
-27.083304096149782
  0
LINE
  8
_0-1_
  6
CONTINUOUS
 62
    5
 10
-2.0678033769927602
 20
-25.083304096149725
 11
-18.048823007699671
 21
-25.083304096149725
  0
LINE
  8
_0-1_
  6
CONTINUOUS
 62
    5
 10
-18.048823007699713
 20
-24.083304096149782
 11
-2.1027241464833857
 21
-24.083304096149782
  0
LINE
  8
_0-1_
  6
CONTINUOUS
 62
    5
 10
-18.048823007700566
 20
-81.083304096149789
 11
18.951176992298056
 21
-81.083304096149789
  0
LINE
  8
_0-1_
  6
CONTINUOUS
 62
    7
 10
50.45117699229921
 20
109.91680690375456
 11
-49.548823007698857
 21
109.91680690375456
  0
LINE
  8
_0-1_
  6
CONTINUOUS
 62
    7
 10
50.45117699229921
 20
109.91680690375456
 11
50.45117699229921
 21
121.91680690375345
  0
LINE
  8
_0-1_
  6
CONTINUOUS
 62
    7
 10
-49.548823007701245
 20
117.91676919793203
 11
50.45117699229921
 21
117.91676919793203
  0
LINE
  8
_0-1_
  6
CENTER1
 62
    4
 10
40.451176992299096
 20
125.2881243345151
 11
40.451176992299096
 21
112.76568802892021
  0
LINE
  8
_0-1_
  6
CENTER1
 62
    4
 10
-39.548823007701131
 20
125.2881243345151
 11
-39.548823007701131
 21
112.76568802892021
  0
LINE
  8
_0-1_
  6
CONTINUOUS
 62
  136
 10
18.951176992299207
 20
113.91676919793204
 11
-18.048823007700566
 21
113.91676919793204
  0
ENDBLK
  0
BLOCK
  2
-006-OTK-NT12
 70
   64
 10
0
 20
0
 30
0
  0
LINE
  8
_0-1_
  6
CENTER1
 62
    4
 10
182.58616907645151
 20
48.923214049526273
 11
243.21472912077539
 21
48.923214049526273
  0
LINE
  8
_0-1_
  6
CENTER1
 62
    4
 10
213.42641136072885
 20
12.834180417339944
 11
213.42641136072885
 21
84.040602550401161
  0
LINE
  8
_0-1_
  6
CONTINUOUS
 62
    7
 10
-194.57358863927115
 20
2.5732774819645314
 11
-194.57358863927115
 21
-82.776785040248512
  0
LINE
  8
_0-1_
  6
DASHED1
 62
    3
 10
205.0264113607283
 20
36.923214049380981
 11
205.0264113607283
 21
18.923214049380981
  0
LINE
  8
_0-1_
  6
DASHED1
 62
    3
 10
205.0264113607283
 20
18.923214049380981
 11
207.42641136072885
 21
21.323214049361063
  0
LINE
  8
_0-1_
  6
DASHED1
 62
    3
 10
207.42641136072885
 20
34.523214049361336
 11
205.0264113607283
 21
36.923214049380981
  0
LINE
  8
_0-1_
  6
DASHED1
 62
    3
 10
205.0264113607283
 20
18.923214049380981
 11
195.42641136072885
 21
18.923214049463517
  0
LINE
  8
_0-1_
  6
CENTER1
 62
    4
 10
-80.566713836305865
 20
-20.076785982109136
 11
-38.572713836307088
 21
-20.076785982109136
  0
LINE
  8
_0-1_
  6
CENTER1
 62
    4
 10
-59.573588639276608
 20
-41.075635665511022
 11
-59.573588639276608
 21
0.9243643344889775
  0
LINE
  8
_0-1_
  6
CENTER1
 62
    4
 10
-164.57358863927115
 20
35.940543278733735
 11
-164.57358863927115
 21
-35.16995104815323
  0
LINE
  8
_0-1_
  6
DASHED1
 62
    5
 10
195.42641136072885
 20
20.4232140494642
 11
206.5264113607283
 21
20.423214049368703
  0
LINE
  8
_0-1_
  6
CONTINUOUS
 62
    6
 10
147.42641136074113
 20
20.423214049900757
 11
195.42641136072885
 21
20.423214049458743
  0
LINE
  8
_0-1_
  6
CONTINUOUS
 62
    6
 10
147.42641136071657
 20
35.423214049900757
 11
193.40211362026608
 21
35.423214049477842
  0
LINE
  8
_0-1_
  6
DASHED1
 62
    3
 10
205.0264113607283
 20
36.923214049380981
 11
192.46877552079891
 21
36.923214049488756
  0
LINE
  8
_0-1_
  6
DASHED1
 62
    5
 10
193.40211362026471
 20
35.423214049480571
 11
206.5264113607283
 21
35.423214049368703
  0
LINE
  8
_0-1_
  6
CONTINUOUS
 62
    7
 10
147.42641136072885
 20
35.423214049262292
 11
147.42641136072885
 21
20.423214049262292
  0
LINE
  8
_0-1_
  6
CONTINUOUS
 62
    7
 10
148.92641136135367
 20
36.923214049886774
 11
148.92641136075477
 21
18.923214049886774
  0
LINE
  8
_0-1_
  6
CONTINUOUS
 62
    7
 10
147.42641136072885
 20
35.423214049262292
 11
148.92641136135367
 21
36.923214049886774
  0
LINE
  8
_0-1_
  6
CONTINUOUS
 62
    7
 10
192.46877552080164
 20
36.923214049483981
 11
148.92641136135367
 21
36.923214049886774
  0
LINE
  8
_0-1_
  6
CONTINUOUS
 62
    7
 10
147.42641136074113
 20
20.423214049900757
 11
148.92641136075477
 21
18.923214049886774
  0
LINE
  8
_0-1_
  6
CONTINUOUS
 62
    7
 10
195.42641136072885
 20
18.923214049457378
 11
148.92641136075477
 21
18.923214049886774
  0
LINE
  8
_0-1_
  6
CENTER1
 62
    4
 10
209.97316785369335
 20
-63.576785950473727
 11
248.73462194294203
 21
-63.576785950473727
  0
LINE
  8
_0-1_
  6
CENTER1
 62
    4
 10
209.97316785369335
 20
-15.576785950473727
 11
248.73462194294203
 21
-15.576785950473727
  0
LINE
  8
_0-1_
  6
DASHED1
 62
    3
 10
222.42641136072885
 20
-74.07678595047372
 11
237.42641136072885
 21
-74.07678595047372
  0
LINE
  8
_0-1_
  6
DASHED1
 62
    3
 10
222.42641136072885
 20
-53.076785950473727
 11
237.42641136072885
 21
-53.076785950473727
  0
LINE
  8
_0-1_
  6
DASHED1
 62
    3
 10
222.42641136072885
 20
-29.076785950473727
 11
237.42641136072885
 21
-29.076785950473727
  0
LINE
  8
_0-1_
  6
DASHED1
 62
    3
 10
222.42641136072885
 20
-2.0767859504737274
 11
237.42641136072885
 21
-2.0767859504737274
  0
LINE
  8
_0-1_
  6
CONTINUOUS
 62
    7
 10
-194.57358863927115
 20
-82.776785040248512
 11
-134.57358863927115
 21
-82.776785040248512
  0
ARC
  8
_0-1_
  6
CONTINUOUS
 62
    7
 10
208.32641136072837
 20
15.323214049526477
 40
0.9000000000000001
 50
180
 51
270
  0
ARC
  8
_0-1_
  6
CONTINUOUS
 62
    7
 10
225.42641136072885
 20
48.923214049526273
 40
0.9000000000000001
 50
134.99999999999977
 51
224.99999999999952
  0
LINE
  8
_0-1_
  6
CONTINUOUS
 62
    7
 10
224.79001525766097
 20
49.559610152594153
 11
225.05567615445628
 21
49.825271049389464
  0
ARC
  8
_0-1_
  6
CONTINUOUS
 62
    7
 10
224.41928005138834
 20
50.461667152457345
 40
0.9000000000000001
 50
315.00000000000193
 51
7.9668064313888642
  0
LINE
  8
_0-1_
  6
CONTINUOUS
 62
    7
 10
224.79001525766097
 20
48.286817946458392
 11
225.05567615445628
 21
48.021157049663081
  0
ARC
  8
_0-1_
  6
CONTINUOUS
 62
    7
 10
224.41928005138834
 20
47.384760946595222
 40
0.9000000000000001
 50
352.03319356861152
 51
44.999999999997357
  0
LINE
  8
_0-1_
  6
CONTINUOUS
 62
    7
 10
207.42641136072851
 20
15.323214049526477
 11
207.42641136072851
 21
38.023672774775527
  0
ARC
  8
_0-1_
  6
CONTINUOUS
 62
    7
 10
213.42641136072885
 20
48.923214049526273
 40
12
 50
7.9668064313885338
 51
237.66397400244051
  0
ARC
  8
_0-1_
  6
CONTINUOUS
 62
    7
 10
206.5264113607285
 20
38.023672774775527
 40
0.9000000000000001
 50
0
 51
57.663974002440582
  0
LINE
  8
_0-1_
  6
CONTINUOUS
 62
    7
 10
219.42641136072851
 20
27.323214049526477
 11
219.42641136072851
 21
38.023672774775079
  0
ARC
  8
_0-1_
  6
CONTINUOUS
 62
    7
 10
213.42641136072885
 20
48.923214049526273
 40
12
 50
302.33602599755591
 51
352.03319356861147
  0
ARC
  8
_0-1_
  6
CONTINUOUS
 62
    7
 10
220.32641136072851
 20
38.023672774775079
 40
0.9000000000000001
 50
122.33602599755508
 51
180
  0
ARC
  8
_0-1_
  6
CONTINUOUS
 62
    7
 10
220.32641136072851
 20
27.323214049526477
 40
0.9000000000000001
 50
180
 51
270
  0
LINE
  8
_0-1_
  6
CONTINUOUS
 62
    7
 10
237.42641136072885
 20
-86.676785950473516
 11
237.42641136072885
 21
23.423214049526443
  0
ARC
  8
_0-1_
  6
CONTINUOUS
 62
    7
 10
234.42641136072885
 20
23.423214049526443
 40
3
 50
0
 51
90
  0
LINE
  8
_0-1_
  6
CONTINUOUS
 62
    7
 10
222.42641136072885
 20
13.523214049526409
 11
222.42641136072885
 21
-13.331201538202102
  0
ARC
  8
_0-1_
  6
CONTINUOUS
 62
    7
 10
223.32641136072871
 20
-13.331201538202102
 40
0.9000000000000001
 50
180
 51
224.99999999999801
  0
LINE
  8
_0-1_
  6
CONTINUOUS
 62
    7
 10
222.69001525766092
 20
-13.967597641269897
 11
223.66280746379678
 21
-14.940389847405761
  0
ARC
  8
_0-1_
  6
CONTINUOUS
 62
    7
 10
223.02641136072899
 20
-15.576785950473557
 40
0.9000000000000001
 50
315.00000000000387
 51
44.99999999999617
  0
LINE
  8
_0-1_
  6
CONTINUOUS
 62
    7
 10
222.69001525766092
 20
-17.185974259677216
 11
223.66280746379678
 21
-16.213182053541352
  0
ARC
  8
_0-1_
  6
CONTINUOUS
 62
    7
 10
223.32641136072905
 20
-17.822370362745012
 40
0.9000000000000001
 50
135.00000000000179
 51
180.00000000000003
  0
LINE
  8
_0-1_
  6
CONTINUOUS
 62
    7
 10
222.42641136072885
 20
-17.822370362745012
 11
222.42641136072885
 21
-61.331201538202102
  0
ARC
  8
_0-1_
  6
CONTINUOUS
 62
    7
 10
223.32641136072871
 20
-61.331201538202102
 40
0.9000000000000001
 50
180
 51
224.99999999999801
  0
LINE
  8
_0-1_
  6
CONTINUOUS
 62
    7
 10
222.69001525766092
 20
-61.967597641269897
 11
223.66280746379678
 21
-62.940389847405761
  0
ARC
  8
_0-1_
  6
CONTINUOUS
 62
    7
 10
223.02641136072899
 20
-63.576785950473557
 40
0.9000000000000001
 50
315.00000000000387
 51
44.99999999999617
  0
LINE
  8
_0-1_
  6
CONTINUOUS
 62
    7
 10
222.69001525766092
 20
-65.185974259677209
 11
223.66280746379678
 21
-64.213182053541345
  0
ARC
  8
_0-1_
  6
CONTINUOUS
 62
    7
 10
223.32641136072905
 20
-65.822370362745005
 40
0.9000000000000001
 50
135.00000000000179
 51
180.00000000000003
  0
LINE
  8
_0-1_
  6
CONTINUOUS
 62
    7
 10
222.42641136072885
 20
-84.57678595047355
 11
222.42641136072885
 21
-65.822370362745005
  0
ARC
  8
_0-1_
  6
CONTINUOUS
 62
    7
 10
225.42641136072885
 20
-84.57678595047355
 40
3
 50
180
 51
270
  0
LINE
  8
_0-1_
  6
CONTINUOUS
 62
    7
 10
236.52641136072899
 20
-87.57678595047355
 11
225.42641136072885
 21
-87.57678595047355
  0
ARC
  8
_0-1_
  6
CONTINUOUS
 62
    7
 10
236.52641136072899
 20
-86.676785950473516
 40
0.9000000000000001
 50
270
 51
0
  0
LINE
  8
_0-1_
  6
CONTINUOUS
 62
    7
 10
220.32641136072851
 20
26.423214049526443
 11
234.42641136072885
 21
26.423214049526443
  0
ARC
  8
_0-1_
  6
CONTINUOUS
 62
    7
 10
221.52641136072884
 20
13.523214049526409
 40
0.9000000000000001
 50
0
 51
90.000000000000014
  0
LINE
  8
_0-1_
  6
CONTINUOUS
 62
    7
 10
208.32641136072837
 20
14.423214049526443
 11
212.68082694845722
 21
14.423214049526443
  0
ARC
  8
_0-1_
  6
CONTINUOUS
 62
    7
 10
212.68082694845722
 20
15.323214049526477
 40
0.9000000000000001
 50
270
 51
314.99999999999801
  0
LINE
  8
_0-1_
  6
CONTINUOUS
 62
    7
 10
213.31722305152502
 20
14.686817946458511
 11
214.29001525766088
 21
15.65961015259429
  0
ARC
  8
_0-1_
  6
CONTINUOUS
 62
    7
 10
214.92641136072868
 20
15.023214049526409
 40
0.9000000000000001
 50
45.000000000003844
 51
134.99999999999619
  0
LINE
  8
_0-1_
  6
CONTINUOUS
 62
    7
 10
216.53559966993234
 20
14.686817946458511
 11
215.56280746379647
 21
15.65961015259429
  0
ARC
  8
_0-1_
  6
CONTINUOUS
 62
    7
 10
217.17199577300013
 20
15.323214049526477
 40
0.9000000000000001
 50
225.00000000000179
 51
270
  0
LINE
  8
_0-1_
  6
CONTINUOUS
 62
    7
 10
221.52641136072884
 20
14.423214049526443
 11
217.17199577300013
 21
14.423214049526443
  0
LINE
  8
_0-1_
  6
CONTINUOUS
 62
    7
 10
-164.57358863909892
 20
6.9232140178908637
 11
-179.5735886390996
 21
6.9232140178908637
  0
ARC
  8
_0-1_
  6
CONTINUOUS
 62
    7
 10
-220.28346798390746
 20
31.51408873290648
 40
38.805021809813553
 50
358.03149910474161
 51
31.083108863399474
  0
ARC
  8
_0-1_
  6
CONTINUOUS
 62
    7
 10
-167.88912216846037
 20
53.939993938466209
 40
40.742483865259977
 50
210.46500008218902
 51
249.28625005908279
  0
ARC
  8
_0-1_
  6
CONTINUOUS
 62
    7
 10
-167.02879439940156
 20
48.03354676645386
 40
38.884230499334102
 50
186.67609384360941
 51
242.91471485564409
  0
LINE
  8
_0-1_
  6
CONTINUOUS
 62
    7
 10
-179.41673638470635
 20
25.637604117712321
 11
-182.86936578803167
 21
13.893451996683602
  0
LINE
  8
_0-1_
  6
CONTINUOUS
 62
    7
 10
-164.57358863909892
 20
15.831137786352933
 11
-182.2997111324315
 21
15.831137786352933
  0
ARC
  8
_0-1_
  6
CONTINUOUS
 62
    7
 10
-176.46930188397491
 20
29.573488358618356
 40
18.150274340728402
 50
252.18530044432094
 51
270.00000000000006
  0
LINE
  8
_0-1_
  6
CONTINUOUS
 62
    7
 10
-184.73341701231718
 20
13.413758788195359
 11
-182.02218899428951
 21
12.293502728306116
  0
ARC
  8
_0-1_
  6
CONTINUOUS
 62
    7
 10
-181.62555420069529
 20
13.527787416185951
 40
1.296448167194886
 50
163.61734337442391
 51
252.18530044432086
  0
LINE
  8
_0-1_
  6
CONTINUOUS
 62
    7
 10
-164.57358863909892
 20
11.423214017890864
 11
-179.57358863909892
 21
11.423214017890864
  0
LINE
  8
_0-1_
  6
CONTINUOUS
 62
    7
 10
-164.57358863909892
 20
27.499171291106954
 11
-178.90998030587613
 21
27.499171291106954
  0
ARC
  8
_0-1_
  6
CONTINUOUS
 62
    7
 10
-176.92911321003359
 20
24.906274956717702
 40
2.592896334389772
 50
90
 51
163.61734337442496
  0
ARC
  8
_0-1_
  6
CONTINUOUS
 62
    7
 10
-178.90998030587613
 20
30.092067625496888
 40
2.592896334389772
 50
178.0314991047415
 51
270
  0
ARC
  8
_0-1_
  6
CONTINUOUS
 62
    7
 10
-189.25164544290985
 20
50.178065298254118
 40
2.592896334389772
 50
31.02465151533098
 51
98.227350766669431
  0
ARC
  8
_0-1_
  6
CONTINUOUS
 62
    7
 10
-190.3694941055505
 20
34.414049009452178
 40
18.345433232411452
 50
87.666972256082175
 51
143.9756376520362
  0
ARC
  8
_0-1_
  6
CONTINUOUS
 62
    7
 10
-203.26563419439103
 20
43.792023832316595
 40
2.4000000000000004
 50
143.9756376520354
 51
186.67609384360878
  0
ARC
  8
_0-1_
  6
CONTINUOUS
 62
    7
 10
-138.77768317264801
 20
34.414049009452178
 40
18.345433232411452
 50
36.02436234796378
 51
92.333027743917782
  0
ARC
  8
_0-1_
  6
CONTINUOUS
 62
    7
 10
-162.11838287879627
 20
48.03354676645386
 40
38.884230499334102
 50
297.08528514435568
 51
353.32390615639048
  0
ARC
  8
_0-1_
  6
CONTINUOUS
 62
    7
 10
-161.25805510973746
 20
53.939993938466209
 40
40.742483865259977
 50
290.71374994091701
 51
329.53499991781081
  0
ARC
  8
_0-1_
  6
CONTINUOUS
 62
    7
 10
-125.88154308380749
 20
43.792023832316595
 40
2.4000000000000004
 50
353.32390615639122
 51
36.024362347964598
  0
ARC
  8
_0-1_
  6
CONTINUOUS
 62
    7
 10
-108.86370929429037
 20
31.51408873290648
 40
38.805021809813553
 50
148.91689113660041
 51
181.9685008952583
  0
LINE
  8
_0-1_
  6
CONTINUOUS
 62
    7
 10
-164.57358863909892
 20
27.499171291106954
 11
-150.2371969723217
 21
27.499171291106954
  0
LINE
  8
_0-1_
  6
CONTINUOUS
 62
    7
 10
-164.57358863909892
 20
11.423214017890864
 11
-149.57358863909926
 21
11.423214017890864
  0
LINE
  8
_0-1_
  6
CONTINUOUS
 62
    7
 10
-164.57358863909892
 20
15.831137786352933
 11
-146.84746614576599
 21
15.831137786352933
  0
ARC
  8
_0-1_
  6
CONTINUOUS
 62
    7
 10
-150.2371969723217
 20
30.092067625496888
 40
2.592896334389772
 50
270
 51
1.9685008952583993
  0
ARC
  8
_0-1_
  6
CONTINUOUS
 62
    7
 10
-152.21806406816424
 20
24.906274956717702
 40
2.592896334389772
 50
16.3826566255748
 51
90
  0
ARC
  8
_0-1_
  6
CONTINUOUS
 62
    7
 10
-147.52162307750254
 20
13.527787416185951
 40
1.296448167194886
 50
287.81469955567894
 51
16.382656625575837
  0
LINE
  8
_0-1_
  6
CONTINUOUS
 62
    7
 10
-144.413760265881
 20
13.413758788195359
 11
-147.124988283909
 21
12.293502728306116
  0
ARC
  8
_0-1_
  6
CONTINUOUS
 62
    7
 10
-152.67787539422292
 20
29.573488358618356
 40
18.150274340728402
 50
270
 51
287.81469955567889
  0
LINE
  8
_0-1_
  6
CONTINUOUS
 62
    7
 10
-149.73044089349148
 20
25.637604117712321
 11
-146.2778114901665
 21
13.893451996683602
  0
ARC
  8
_0-1_
  6
CONTINUOUS
 62
    7
 10
-139.89553183528866
 20
50.178065298254118
 40
2.592896334389772
 50
81.772649233330569
 51
148.97534848466901
  0
LINE
  8
_0-1_
  6
CONTINUOUS
 62
    7
 10
-164.57358863909892
 20
6.9232140178908637
 11
-149.57358863909926
 21
6.9232140178908637
  0
LINE
  8
_0-1_
  6
CONTINUOUS
 62
    7
 10
-181.07358863909926
 20
8.4232140178908637
 11
-181.07358863909926
 21
9.9232140178908637
  0
LINE
  8
_0-1_
  6
CONTINUOUS
 62
    7
 10
-148.07358863909892
 20
8.4232140178908637
 11
-148.07358863909892
 21
9.9232140178908637
  0
ARC
  8
_0-1_
  6
CONTINUOUS
 62
    7
 10
-179.57358863909892
 20
9.9232140178908637
 40
1.5
 50
90
 51
180
  0
ARC
  8
_0-1_
  6
CONTINUOUS
 62
    7
 10
-179.5735886390996
 20
8.4232140178908637
 40
1.5
 50
180
 51
270
  0
ARC
  8
_0-1_
  6
CONTINUOUS
 62
    7
 10
-149.57358863909926
 20
9.9232140178908637
 40
1.5
 50
0
 51
90
  0
ARC
  8
_0-1_
  6
CONTINUOUS
 62
    7
 10
-149.57358863909926
 20
8.4232140178908637
 40
1.5
 50
270
 51
359.99999999999977
  0
LINE
  8
_0-1_
  6
CONTINUOUS
 62
    7
 10
-164.57358863909892
 20
28.399171291106818
 11
-155.57358863909892
 21
28.399171291106818
  0
LINE
  8
_0-1_
  6
CONTINUOUS
 62
    7
 10
-164.57358863909892
 20
28.399171291106818
 11
-173.57358863909892
 21
28.399171291106818
  0
LINE
  8
_0-1_
  6
CONTINUOUS
 62
    7
 10
-173.57358863909892
 20
27.499171291106954
 11
-173.57358863909892
 21
28.399171291106818
  0
LINE
  8
_0-1_
  6
CONTINUOUS
 62
    7
 10
-155.57358863909892
 20
27.499171291106954
 11
-155.57358863909892
 21
28.399171291106818
  0
LINE
  8
_0-1_
  6
CONTINUOUS
 62
    7
 10
224.52641136072884
 20
74.42321404952628
 11
215.67199577299996
 21
74.42321404952628
  0
LINE
  8
_0-1_
  6
CONTINUOUS
 62
    7
 10
18.426411360727826
 20
12.923214049526443
 11
105.42641136072851
 21
42.923214049526443
  0
ARC
  8
_0-1_
  6
CONTINUOUS
 62
    7
 10
196.32641136072837
 20
15.323214049526477
 40
0.9000000000000001
 50
180
 51
315.00000000001148
  0
LINE
  8
_0-1_
  6
CONTINUOUS
 62
    7
 10
196.96280746379651
 20
14.686817946458596
 11
198.19920356660012
 21
15.923214049262462
  0
LINE
  8
_0-1_
  6
CONTINUOUS
 62
    7
 10
206.52641136072864
 20
15.923214049262462
 11
198.19920356660012
 21
15.923214049262462
  0
ARC
  8
_0-1_
  6
CONTINUOUS
 62
    7
 10
206.52641136072864
 20
16.823214049262496
 40
0.9000000000000001
 50
270
 51
0
  0
LINE
  8
_0-1_
  6
CONTINUOUS
 62
    7
 10
207.42641136072851
 20
25.677629636991007
 11
207.42641136072851
 21
16.823214049262496
  0
ARC
  8
_0-1_
  6
CONTINUOUS
 62
    7
 10
206.52641136072864
 20
25.677629636991007
 40
0.9000000000000001
 50
0
 51
44.999999999998039
  0
LINE
  8
_0-1_
  6
CONTINUOUS
 62
    7
 10
207.16280746379644
 20
26.314025740058803
 11
206.19001525766058
 21
27.286817946194667
  0
ARC
  8
_0-1_
  6
CONTINUOUS
 62
    7
 10
206.82641136072837
 20
27.923214049262462
 40
0.9000000000000001
 50
135.00000000000384
 51
224.99999999999619
  0
LINE
  8
_0-1_
  6
CONTINUOUS
 62
    7
 10
207.16280746379644
 20
29.532402358466122
 11
206.19001525766058
 21
28.559610152330258
  0
ARC
  8
_0-1_
  6
CONTINUOUS
 62
    7
 10
206.5264113607283
 20
30.168798461533918
 40
0.9000000000000001
 50
315.00000000000199
 51
0
  0
LINE
  8
_0-1_
  6
CONTINUOUS
 62
    7
 10
-104.57358863927217
 20
18.923214017891716
 11
-5.5735886392721739
 21
57.923214049526443
  0
LINE
  8
_0-1_
  6
CONTINUOUS
 62
    7
 10
-134.57358863927183
 20
-12.576785982108966
 11
-104.57358863927217
 21
18.923214017891716
  0
ARC
  8
_0-1_
  6
CONTINUOUS
 62
    7
 10
-117.47358863927204
 20
-38.976785982108147
 40
0.9000000000000001
 50
0
 51
90
  0
LINE
  8
_0-1_
  6
CONTINUOUS
 62
    7
 10
-116.57358863927217
 20
-40.17678598210842
 11
-116.57358863927217
 21
-38.976785982108147
  0
ARC
  8
_0-1_
  6
CONTINUOUS
 62
    7
 10
-115.67358863927231
 20
-40.17678598210842
 40
0.9000000000000001
 50
180
 51
270
  0
LINE
  8
_0-1_
  6
CONTINUOUS
 62
    7
 10
-108.47358863927238
 20
-41.076785982108966
 11
-115.67358863927231
 21
-41.076785982108966
  0
ARC
  8
_0-1_
  6
CONTINUOUS
 62
    7
 10
-108.47358863927238
 20
-40.17678598210842
 40
0.9000000000000001
 50
270
 51
0
  0
LINE
  8
_0-1_
  6
CONTINUOUS
 62
    7
 10
-107.57358863927251
 20
-38.976785982108147
 11
-107.57358863927251
 21
-40.17678598210842
  0
ARC
  8
_0-1_
  6
CONTINUOUS
 62
    7
 10
-106.67358863927265
 20
-38.976785982108147
 40
0.9000000000000001
 50
90
 51
180
  0
LINE
  8
_0-1_
  6
CONTINUOUS
 62
    7
 10
-29.573588639272174
 20
-26.076785982108966
 11
18.426411360727826
 21
12.923214049526443
  0
LINE
  8
_0-1_
  6
CONTINUOUS
 62
    7
 10
58.724166042113239
 20
33.165692898353647
 11
15.466814781441286
 21
18.249364877432349
  0
ARC
  8
_0-1_
  6
CONTINUOUS
 62
    7
 10
-59.573588639272174
 20
20.528534165997364
 40
6
 50
111.50143433989672
 51
180
  0
LINE
  8
_0-1_
  6
CONTINUOUS
 62
    7
 10
-61.772735751111526
 20
26.110984522292021
 11
-3.8647685366412077
 21
48.923214049526443
  0
LINE
  8
_0-1_
  6
CONTINUOUS
 62
    7
 10
56.083641507226304
 20
48.923214049526443
 11
-3.8647685366412077
 21
48.923214049526443
  0
ARC
  8
_0-1_
  6
CONTINUOUS
 62
    7
 10
56.083641507226304
 20
40.823214049526477
 40
8.1000000000000014
 50
289.02560603756859
 51
90.000000000000028
  0
ARC
  8
_0-1_
  6
CONTINUOUS
 62
    7
 10
-123.07358863927206
 20
-20.076785982108966
 40
6
 50
136.39718102729731
 51
270
  0
LINE
  8
_0-1_
  6
CONTINUOUS
 62
    7
 10
-127.41841622547892
 20
-15.938854947625948
 11
-102.74170232670448
 21
9.9716946460880465
  0
LINE
  8
_0-1_
  6
CONTINUOUS
 62
    7
 10
-79.772735751111526
 20
19.020075425630914
 11
-102.74170232670448
 21
9.9716946460880465
  0
ARC
  8
_0-1_
  6
CONTINUOUS
 62
    7
 10
-77.573588639272174
 20
13.437625069336939
 40
6
 50
0
 51
111.50143433989658
  0
ARC
  8
_0-1_
  6
CONTINUOUS
 62
    7
 10
225.43187430891751
 20
43.807418959838898
 40
0.9000000000000001
 50
156.92006633113297
 51
214.9999999999996
  0
LINE
  8
_0-1_
  6
CONTINUOUS
 62
    7
 10
207.42641136072851
 20
37.846549389079271
 11
207.42641136072851
 21
30.168798461533918
  0
ARC
  8
_0-1_
  6
CONTINUOUS
 62
    7
 10
213.42641136072885
 20
48.923214049526273
 40
12.149999999999999
 50
336.92006633113311
 51
238.07993366886222
  0
ARC
  8
_0-1_
  6
CONTINUOUS
 62
    7
 10
206.5264113607285
 20
37.846549389079271
 40
0.9000000000000001
 50
0
 51
58.079933668862189
  0
ARC
  8
_0-1_
  6
CONTINUOUS
 62
    7
 10
215.67199577299996
 20
73.523214049526274
 40
0.9000000000000001
 50
90
 51
134.99999999999804
  0
LINE
  8
_0-1_
  6
CONTINUOUS
 62
    7
 10
215.03559966993217
 20
74.15961015259424
 11
214.0628074637963
 21
73.186817946458461
  0
ARC
  8
_0-1_
  6
CONTINUOUS
 62
    7
 10
213.42641136072851
 20
73.823214049526342
 40
0.9000000000000001
 50
225.00000000000384
 51
314.99999999999619
  0
LINE
  8
_0-1_
  6
CONTINUOUS
 62
    7
 10
211.81722305152485
 20
74.15961015259424
 11
212.79001525766071
 21
73.186817946458461
  0
ARC
  8
_0-1_
  6
CONTINUOUS
 62
    7
 10
211.18082694845705
 20
73.523214049526274
 40
0.9000000000000001
 50
45.000000000001982
 51
90
  0
LINE
  8
_0-1_
  6
CONTINUOUS
 62
    7
 10
105.42641136072851
 20
42.923214049526443
 11
189.50152891587658
 21
42.923214049526443
  0
ARC
  8
_0-1_
  6
CONTINUOUS
 62
    7
 10
189.50152891587658
 20
42.023214049526452
 40
0.9000000000000001
 50
16.087702538161356
 51
90
  0
LINE
  8
_0-1_
  6
CONTINUOUS
 62
    7
 10
-5.5735886392721739
 20
57.923214049526443
 11
190.57909204313722
 21
57.923214049526443
  0
ARC
  8
_0-1_
  6
CONTINUOUS
 62
    7
 10
190.57909204313722
 20
58.823214049526435
 40
0.9000000000000001
 50
270
 51
336.57237349127968
  0
LINE
  8
_0-1_
  6
CONTINUOUS
 62
    7
 10
195.42641136072851
 20
15.323214049526477
 11
195.42641136072851
 21
32.71210674619909
  0
ARC
  8
_0-1_
  6
CONTINUOUS
 62
    7
 10
213.42641136072885
 20
48.923214049526273
 40
24
 50
196.08770253816144
 51
220.62069995133447
  0
ARC
  8
_0-1_
  6
CONTINUOUS
 62
    7
 10
194.5264113607285
 20
32.71210674619909
 40
0.9000000000000001
 50
0
 51
40.620699951334174
  0
ARC
  8
_0-1_
  6
CONTINUOUS
 62
    7
 10
213.42641136072885
 20
48.923214049526273
 40
24
 50
121.20303307281048
 51
156.57237349128019
  0
ARC
  8
_0-1_
  6
CONTINUOUS
 62
    7
 10
200.52641136072884
 20
70.22110126868489
 40
0.9000000000000001
 50
301.20303307281097
 51
0
  0
LINE
  8
_0-1_
  6
CONTINUOUS
 62
    7
 10
201.42641136072885
 20
73.523214049526274
 11
201.42641136072885
 21
70.22110126868489
  0
LINE
  8
_0-1_
  6
CONTINUOUS
 62
    7
 10
202.32641136072886
 20
74.42321404952628
 11
211.18082694845705
 21
74.42321404952628
  0
ARC
  8
_0-1_
  6
CONTINUOUS
 62
    7
 10
202.32641136072886
 20
73.523214049526274
 40
0.9000000000000001
 50
90
 51
180
  0
ARC
  8
_0-1_
  6
CONTINUOUS
 62
    7
 10
224.52641136072884
 20
73.523214049526274
 40
0.9000000000000001
 50
0
 51
90
  0
LINE
  8
_0-1_
  6
CONTINUOUS
 62
    7
 10
225.42641136072885
 20
73.523214049526274
 11
225.42641136072885
 21
70.22110126868489
  0
ARC
  8
_0-1_
  6
CONTINUOUS
 62
    7
 10
226.32641136072886
 20
70.22110126868489
 40
0.9000000000000001
 50
180
 51
238.79696692718906
  0
LINE
  8
_0-1_
  6
CONTINUOUS
 62
    7
 10
227.83451155023693
 20
38.806995256665047
 11
224.6946374690574
 21
43.291200167122952
  0
ARC
  8
_0-1_
  6
CONTINUOUS
 62
    7
 10
228.57174839009701
 20
39.323214049380972
 40
0.9000000000000001
 50
214.99999999999903
 51
270
  0
LINE
  8
_0-1_
  6
CONTINUOUS
 62
    7
 10
228.57174839009701
 20
38.423214049380981
 11
234.4371229145342
 21
38.423214049380981
  0
ARC
  8
_0-1_
  6
CONTINUOUS
 62
    7
 10
213.42641136072885
 20
48.923214049526273
 40
24
 50
335.44387469289103
 51
58.796966927189523
  0
ARC
  8
_0-1_
  6
CONTINUOUS
 62
    7
 10
234.4371229145342
 20
39.323214049380972
 40
0.9000000000000001
 50
270
 51
335.44387469289069
  0
LINE
  8
_0-1_
  6
CONTINUOUS
 62
    7
 10
-89.573588639271833
 20
-66.57678598210947
 11
-29.573588639271833
 21
-66.57678598210947
  0
LINE
  8
_0-1_
  6
CONTINUOUS
 62
    7
 10
-89.573588639271833
 20
-6.5767859821094774
 11
-89.573588639271833
 21
-66.57678598210947
  0
LINE
  8
_0-1_
  6
CONTINUOUS
 62
    7
 10
-29.573588639271833
 20
-6.5767859821094774
 11
-29.573588639271833
 21
-66.57678598210947
  0
LINE
  8
_0-1_
  6
CONTINUOUS
 62
    7
 10
-89.573588639271833
 20
-6.5767859821094774
 11
-29.573588639271833
 21
-6.5767859821094774
  0
CIRCLE
  8
_0-1_
  6
CONTINUOUS
 62
    7
 10
-59.573588639271151
 20
-20.076785982109136
 40
12
  0
LINE
  8
_0-1_
  6
CONTINUOUS
 62
    7
 10
-134.57358863927115
 20
2.5732774819645314
 11
-134.57358863927115
 21
-82.776785040248512
  0
LINE
  8
_0-1_
  6
CONTINUOUS
 62
    7
 10
-194.57358863927115
 20
2.5732774819645314
 11
-134.57358863927115
 21
2.5732774819645314
  0
LINE
  8
_0-1_
  6
CONTINUOUS
 62
    7
 10
-117.47358863927204
 20
-38.076785982108966
 11
-134.57358863927115
 21
-38.076785982108966
  0
LINE
  8
_0-1_
  6
CONTINUOUS
 62
    7
 10
-155.57358863909892
 20
2.5732774819645314
 11
-155.57358863909892
 21
6.9232140178908637
  0
LINE
  8
_0-1_
  6
CONTINUOUS
 62
    7
 10
-173.57358863909892
 20
2.5732774819645314
 11
-173.57358863909892
 21
6.9232140178908637
  0
LINE
  8
_0-1_
  6
DASHED1
 62
    3
 10
-154.82358863927115
 20
2.5732774819645314
 11
-154.82358863927115
 21
-3.4267452036687658
  0
LINE
  8
_0-1_
  6
DASHED1
 62
    3
 10
-155.57358863909892
 20
-3.4267452036687658
 11
-155.57358863909892
 21
2.5732774819645314
  0
LINE
  8
_0-1_
  6
DASHED1
 62
    3
 10
-173.57358863909892
 20
-3.4267452036687658
 11
-173.57358863909892
 21
2.5732774819645314
  0
LINE
  8
_0-1_
  6
DASHED1
 62
    3
 10
-174.32358863927115
 20
2.5732774819645314
 11
-174.32358863927115
 21
-3.4267452036687658
  0
LINE
  8
_0-1_
  6
DASHED1
 62
    3
 10
-194.57358863927115
 20
-62.076785982107346
 11
-134.57358863927115
 21
-62.076785982107346
  0
LINE
  8
_0-1_
  6
DASHED1
 62
    3
 10
-173.57358863915314
 20
-26.676785982109273
 11
-171.17358863917306
 21
-29.076785982109136
  0
LINE
  8
_0-1_
  6
DASHED1
 62
    3
 10
-157.97358863917279
 20
-29.076785982109136
 11
-171.17358863917306
 21
-29.076785982109136
  0
LINE
  8
_0-1_
  6
DASHED1
 62
    3
 10
-157.97358863917279
 20
-29.076785982109136
 11
-155.57358863915314
 21
-26.676785982109273
  0
LINE
  8
_0-1_
  6
DASHED1
 62
    3
 10
-155.57358863915314
 20
-26.676785982109273
 11
-173.57358863915314
 21
-26.676785982109273
  0
LINE
  8
_0-1_
  6
DASHED1
 62
    3
 10
-173.57358863909892
 20
-26.676785982109273
 11
-173.57358863909892
 21
-18.426745203668776
  0
LINE
  8
_0-1_
  6
DASHED1
 62
    3
 10
-155.57358863909892
 20
-26.676785982109273
 11
-155.57358863909892
 21
-18.426745203668776
  0
LINE
  8
_0-1_
  6
DASHED1
 62
    3
 10
-148.37358863927156
 20
-12.576785982108966
 11
-134.57358863927183
 21
-12.576785982108966
  0
LINE
  8
_0-1_
  6
DASHED1
 62
    3
 10
-149.27358863927142
 20
-13.476785982108829
 11
-149.27358863927142
 21
-28.17678598210842
  0
ARC
  8
_0-1_
  6
DASHED1
 62
    3
 10
-150.17358863927163
 20
-28.17678598210842
 40
0.9000000000000001
 50
270
 51
0
  0
LINE
  8
_0-1_
  6
DASHED1
 62
    3
 10
-150.17358863927163
 20
-29.076785982108966
 11
-178.97358863927136
 21
-29.076785982108966
  0
ARC
  8
_0-1_
  6
DASHED1
 62
    3
 10
-178.97358863927136
 20
-28.17678598210842
 40
0.9000000000000001
 50
180
 51
270
  0
LINE
  8
_0-1_
  6
DASHED1
 62
    3
 10
-179.87358863927156
 20
-28.17678598210842
 11
-179.87358863927156
 21
-13.476785982108829
  0
ARC
  8
_0-1_
  6
DASHED1
 62
    3
 10
-193.67358863927231
 20
-13.476785982108829
 40
0.9000000000000001
 50
90
 51
180
  0
ARC
  8
_0-1_
  6
DASHED1
 62
    3
 10
-193.67358863927231
 20
-40.17678598210842
 40
0.9000000000000001
 50
180
 51
270
  0
LINE
  8
_0-1_
  6
DASHED1
 62
    3
 10
-193.67358863927231
 20
-41.076785982108966
 11
-186.47358863927204
 21
-41.076785982108966
  0
ARC
  8
_0-1_
  6
DASHED1
 62
    3
 10
-186.47358863927204
 20
-40.17678598210842
 40
0.9000000000000001
 50
270
 51
0
  0
LINE
  8
_0-1_
  6
DASHED1
 62
    3
 10
-185.57358863927217
 20
-38.976785982108147
 11
-185.57358863927217
 21
-40.17678598210842
  0
ARC
  8
_0-1_
  6
DASHED1
 62
    3
 10
-184.67358863927231
 20
-38.976785982108147
 40
0.9000000000000001
 50
90
 51
180
  0
LINE
  8
_0-1_
  6
DASHED1
 62
    3
 10
-156.47358863927204
 20
-38.076785982108966
 11
-184.67358863927231
 21
-38.076785982108966
  0
ARC
  8
_0-1_
  6
DASHED1
 62
    3
 10
-156.47358863927204
 20
-38.976785982108147
 40
0.9000000000000001
 50
0
 51
90
  0
LINE
  8
_0-1_
  6
DASHED1
 62
    3
 10
-155.57358863927217
 20
-40.17678598210842
 11
-155.57358863927217
 21
-38.976785982108147
  0
ARC
  8
_0-1_
  6
DASHED1
 62
    3
 10
-154.67358863927231
 20
-40.17678598210842
 40
0.9000000000000001
 50
180
 51
270
  0
LINE
  8
_0-1_
  6
DASHED1
 62
    3
 10
-147.47358863927204
 20
-41.076785982108966
 11
-154.67358863927231
 21
-41.076785982108966
  0
ARC
  8
_0-1_
  6
DASHED1
 62
    3
 10
-147.47358863927204
 20
-40.17678598210842
 40
0.9000000000000001
 50
270
 51
0
  0
LINE
  8
_0-1_
  6
DASHED1
 62
    3
 10
-146.57358863927217
 20
-38.976785982108147
 11
-146.57358863927217
 21
-40.17678598210842
  0
ARC
  8
_0-1_
  6
DASHED1
 62
    3
 10
-145.67358863927231
 20
-38.976785982108147
 40
0.9000000000000001
 50
90
 51
180
  0
LINE
  8
_0-1_
  6
DASHED1
 62
    3
 10
-134.57358863927115
 20
-38.076785982108966
 11
-145.67358863927231
 21
-38.076785982108966
  0
LINE
  8
_0-1_
  6
DASHED1
 62
    3
 10
-194.57358863927115
 20
-3.4267452036687658
 11
-173.57358863909823
 21
-3.4267452036687658
  0
LINE
  8
_0-1_
  6
DASHED1
 62
    3
 10
-155.57358863909823
 20
-3.4267452036687658
 11
-134.57358863927115
 21
-3.4267452036687658
  0
LINE
  8
_0-1_
  6
DASHED1
 62
    3
 10
-193.67358863927231
 20
-12.576785982108966
 11
-180.77358863927142
 21
-12.576785982108966
  0
ARC
  8
_0-1_
  6
DASHED1
 62
    3
 10
-148.37358863927156
 20
-13.476785982108829
 40
0.9000000000000001
 50
90
 51
180
  0
ARC
  8
_0-1_
  6
DASHED1
 62
    3
 10
-180.77358863927142
 20
-13.476785982108829
 40
0.9000000000000001
 50
0
 51
90.000000000000014
  0
LINE
  8
_0-1_
  6
DASHED1
 62
    3
 10
-164.56150184543412
 20
-16.926745203668531
 11
-164.56150184543412
 21
-3.4267452036685313
  0
LINE
  8
_0-1_
  6
DASHED1
 62
    3
 10
-152.61250184543411
 20
-18.426745203668531
 11
-176.3785018454341
 21
-18.426745203668531
  0
ARC
  8
_0-1_
  6
DASHED1
 62
    3
 10
-152.57350184543412
 20
-14.652745203668523
 40
3.774
 50
269.40548706054687
 51
322.95143127441401
  0
ARC
  8
_0-1_
  6
DASHED1
 62
    3
 10
-150.98350184543412
 20
42.890254796331469
 40
61.338000000000008
 50
257.21112060546875
 51
268.47799682617188
  0
ARC
  8
_0-1_
  6
DASHED1
 62
    3
 10
-176.54950184543412
 20
-14.652745203668523
 40
3.774
 50
217.04856872558594
 51
270.59451293945312
  0
ARC
  8
_0-1_
  6
DASHED1
 62
    3
 10
-178.1395018454341
 20
42.890254796331469
 40
61.338000000000008
 50
271.52200317382812
 51
282.78887939453125
  0
LINE
  8
_0-1_
  6
DASHED1
 62
    3
 10
-149.56150184543412
 20
-3.4267452036685313
 11
-149.56150184543412
 21
-16.926745203668531
  0
LINE
  8
_0-1_
  6
DASHED1
 62
    3
 10
-149.56150184543412
 20
-3.4267452036685313
 11
-179.56150184543412
 21
-3.4267452036685313
  0
LINE
  8
_0-1_
  6
DASHED1
 62
    3
 10
-179.56150184543412
 20
-3.4267452036685313
 11
-179.56150184543412
 21
-16.926745203668531
  0
LINE
  8
_0-1_
  6
CONTINUOUS
 62
    6
 10
-172.07358863910505
 20
6.9232140178908637
 11
-172.07358863910505
 21
2.5732774819645314
  0
LINE
  8
_0-1_
  6
CONTINUOUS
 62
    6
 10
-157.07358863910505
 20
6.9232140178908637
 11
-157.07358863910505
 21
2.5732774819645314
  0
LINE
  8
_0-1_
  6
DASHED1
 62
    5
 10
-172.07358863910505
 20
2.5732774819645314
 11
-172.07358863910505
 21
-3.4267452036687658
  0
LINE
  8
_0-1_
  6
DASHED1
 62
    5
 10
-157.07358863910505
 20
2.5732774819645314
 11
-157.07358863910505
 21
-3.4267452036687658
  0
LINE
  8
_0-1_
  6
DASHED1
 62
    5
 10
-157.07358863910505
 20
-18.426745203668776
 11
-157.07358863910505
 21
-28.176785982109273
  0
LINE
  8
_0-1_
  6
DASHED1
 62
    5
 10
-172.07358863910505
 20
-18.426745203668776
 11
-172.07358863910505
 21
-28.176785982109273
  0
LINE
  8
_0-1_
  6
CONTINUOUS
 62
    7
 10
-123.07358863927206
 20
-26.076785982108966
 11
-89.573588639271833
 21
-26.076785982108966
  0
LINE
  8
_0-1_
  6
CONTINUOUS
 62
    7
 10
-89.573588639271833
 20
-38.076785982108966
 11
-106.67358863927265
 21
-38.076785982108966
  0
LINE
  8
_0-1_
  6
CONTINUOUS
 62
    7
 10
-71.573588639272174
 20
13.437625069336939
 11
-71.573588639272174
 21
-6.5767859821094774
  0
LINE
  8
_0-1_
  6
CONTINUOUS
 62
    7
 10
-65.573588639272174
 20
20.528534165997364
 11
-65.573588639272174
 21
-6.5767859821094774
  0
LINE
  8
_0-1_
  6
CONTINUOUS
 62
    7
 10
-29.573588639271833
 20
-18.345962931581923
 11
15.466814781441286
 21
18.249364877432349
  0
ARC
  8
_0-1_
  6
DASHED1
 62
    3
 10
-78.473588639272037
 20
-38.976785982108147
 40
0.9000000000000001
 50
0
 51
90
  0
LINE
  8
_0-1_
  6
DASHED1
 62
    3
 10
-77.573588639272174
 20
-40.17678598210842
 11
-77.573588639272174
 21
-38.976785982108147
  0
ARC
  8
_0-1_
  6
DASHED1
 62
    3
 10
-76.67358863927231
 20
-40.17678598210842
 40
0.9000000000000001
 50
180
 51
270
  0
LINE
  8
_0-1_
  6
DASHED1
 62
    3
 10
-69.473588639272037
 20
-41.076785982108966
 11
-76.67358863927231
 21
-41.076785982108966
  0
ARC
  8
_0-1_
  6
DASHED1
 62
    3
 10
-69.473588639272037
 20
-40.17678598210842
 40
0.9000000000000001
 50
270
 51
0
  0
LINE
  8
_0-1_
  6
DASHED1
 62
    3
 10
-68.573588639272174
 20
-38.976785982108147
 11
-68.573588639272174
 21
-40.17678598210842
  0
ARC
  8
_0-1_
  6
DASHED1
 62
    3
 10
-67.67358863927231
 20
-38.976785982108147
 40
0.9000000000000001
 50
90
 51
180
  0
LINE
  8
_0-1_
  6
DASHED1
 62
    3
 10
-39.473588639272037
 20
-38.076785982108966
 11
-67.67358863927231
 21
-38.076785982108966
  0
ARC
  8
_0-1_
  6
DASHED1
 62
    3
 10
-39.473588639272037
 20
-38.976785982108147
 40
0.9000000000000001
 50
0
 51
90
  0
LINE
  8
_0-1_
  6
DASHED1
 62
    3
 10
-38.573588639272174
 20
-40.17678598210842
 11
-38.573588639272174
 21
-38.976785982108147
  0
ARC
  8
_0-1_
  6
DASHED1
 62
    3
 10
-37.67358863927231
 20
-40.17678598210842
 40
0.9000000000000001
 50
180
 51
270
  0
LINE
  8
_0-1_
  6
DASHED1
 62
    3
 10
-30.473588639272037
 20
-41.076785982108966
 11
-37.67358863927231
 21
-41.076785982108966
  0
ARC
  8
_0-1_
  6
DASHED1
 62
    3
 10
-30.473588639272037
 20
-40.17678598210842
 40
0.9000000000000001
 50
270
 51
0
  0
LINE
  8
_0-1_
  6
DASHED1
 62
    3
 10
-46.411142058188688
 20
-26.076785982108966
 11
-39.088447770663919
 21
-26.076785982108966
  0
ARC
  8
_0-1_
  6
DASHED1
 62
    3
 10
-46.411142058188688
 20
-23.076785982108966
 40
3
 50
167.16041159309589
 51
270
  0
ARC
  8
_0-1_
  6
DASHED1
 62
    3
 10
-59.573588639276949
 20
-20.076785982108966
 40
10.500000000000004
 50
347.16041159309589
 51
356.2914268983892
  0
ARC
  8
_0-1_
  6
DASHED1
 62
    3
 10
-51.640236327187125
 20
-20.591004896856852
 40
2.5499999999982927
 50
356.2914268983892
 51
176.29142689838218
  0
ARC
  8
_0-1_
  6
DASHED1
 62
    3
 10
-59.573588639272174
 20
-20.076785982108284
 40
5.3999999999999995
 50
291.99183250708336
 51
356.29142689838216
  0
ARC
  8
_0-1_
  6
DASHED1
 62
    3
 10
-57.214399794010404
 20
-25.918380626757887
 40
0.9000000000000001
 50
111.99183250708309
 51
169.41870561160874
  0
ARC
  8
_0-1_
  6
DASHED1
 62
    3
 10
-59.573588639272174
 20
-25.477667576811434
 40
1.5
 50
190.58129438838958
 51
349.41870561160852
  0
ARC
  8
_0-1_
  6
DASHED1
 62
    3
 10
-61.932777484533943
 20
-25.918380626757205
 40
0.9000000000000001
 50
10.581294388389688
 51
68.008167492914083
  0
ARC
  8
_0-1_
  6
DASHED1
 62
    3
 10
-59.573588639272174
 20
-20.076785982108284
 40
5.3999999999999995
 50
201.99183250709132
 51
248.00816749291431
  0
ARC
  8
_0-1_
  6
DASHED1
 62
    3
 10
-65.415183283921095
 20
-22.435974827370735
 40
0.9000000000000001
 50
21.991832507091466
 51
79.418705611610747
  0
ARC
  8
_0-1_
  6
DASHED1
 62
    3
 10
-64.974470233974984
 20
-20.076785982108966
 40
1.5
 50
100.58129438839185
 51
259.41870561161085
  0
ARC
  8
_0-1_
  6
DASHED1
 62
    3
 10
-65.415183283921095
 20
-17.717597136847196
 40
0.9000000000000001
 50
280.5812943883916
 51
338.00816749291681
  0
ARC
  8
_0-1_
  6
DASHED1
 62
    3
 10
-59.573588639272174
 20
-20.076785982108284
 40
5.3999999999999995
 50
93.708573101663944
 51
158.00816749291681
  0
ARC
  8
_0-1_
  6
DASHED1
 62
    3
 10
-60.087807554027307
 20
-12.143433670021103
 40
2.5500000000002134
 50
273.70857310166377
 51
93.708573101629796
  0
ARC
  8
_0-1_
  6
DASHED1
 62
    3
 10
-59.573588639276949
 20
-20.076785982108966
 40
10.500000000000004
 50
93.708573101629824
 51
102.83958840688375
  0
ARC
  8
_0-1_
  6
DASHED1
 62
    3
 10
-62.573588639272174
 20
-6.9143394010196815
 40
3
 50
180
 51
282.83958840688365
  0
ARC
  8
_0-1_
  6
DASHED1
 62
    3
 10
-77.573588639272174
 20
-20.076785982108966
 40
6
 50
270
 51
0
  0
LINE
  8
_0-1_
  6
DASHED1
 62
    3
 10
-89.573588639271833
 20
-26.076785982108966
 11
-77.573588639272174
 21
-26.076785982108966
  0
LINE
  8
_0-1_
  6
DASHED1
 62
    3
 10
-78.473588639272037
 20
-38.076785982108966
 11
-89.573588639271833
 21
-38.076785982108966
  0
LINE
  8
_0-1_
  6
DASHED1
 62
    3
 10
-71.573588639272174
 20
-6.5767859821094774
 11
-71.573588639272174
 21
-20.076785982108966
  0
LINE
  8
_0-1_
  6
DASHED1
 62
    3
 10
-65.573588639272174
 20
-6.5767859821094774
 11
-65.573588639272174
 21
-6.9143394010196815
  0
LINE
  8
_0-1_
  6
DASHED1
 62
    3
 10
-39.088447770663919
 20
-26.076785982108966
 11
-29.573588639271833
 21
-18.345962931581923
  0
LINE
  8
_0-1_
  6
DASHED1
 62
    3
 10
-89.573588639271833
 20
-62.976785982110023
 11
-29.573588639271833
 21
-62.976785982110023
  0
LINE
  8
_0-1_
  6
CONTINUOUS
 62
    7
 10
-62.420588639276616
 20
-18.930785982109132
 11
-64.757588639276605
 21
-18.930785982109132
  0
LINE
  8
_0-1_
  6
CONTINUOUS
 62
    7
 10
-62.420588639276616
 20
-21.222785982109141
 11
-64.757588639276605
 21
-21.222785982109141
  0
LINE
  8
_0-1_
  6
CONTINUOUS
 62
    7
 10
-60.719588639276608
 20
-22.923785982109141
 11
-60.719588639276608
 21
-25.260785982109141
  0
LINE
  8
_0-1_
  6
CONTINUOUS
 62
    7
 10
-58.427588639276607
 20
-22.923785982109141
 11
-58.427588639276607
 21
-25.260785982109141
  0
LINE
  8
_0-1_
  6
CONTINUOUS
 62
    7
 10
-56.726588639276599
 20
-21.222785982109141
 11
-54.389588639276603
 21
-21.222785982109141
  0
LINE
  8
_0-1_
  6
CONTINUOUS
 62
    7
 10
-56.726588639276599
 20
-18.930785982109132
 11
-54.389588639276603
 21
-18.930785982109132
  0
LINE
  8
_0-1_
  6
CONTINUOUS
 62
    7
 10
-58.427588639276607
 20
-17.229785982109131
 11
-58.427588639276607
 21
-14.892785982109132
  0
LINE
  8
_0-1_
  6
CONTINUOUS
 62
    7
 10
-60.719588639276608
 20
-17.229785982109131
 11
-60.719588639276608
 21
-14.892785982109132
  0
ARC
  8
_0-1_
  6
CONTINUOUS
 62
    7
 10
-62.420588639276616
 20
-17.229785982109131
 40
1.6980000000000002
 50
270
 51
0
  0
ARC
  8
_0-1_
  6
CONTINUOUS
 62
    7
 10
-56.726588639276599
 20
-17.229785982109131
 40
1.6980000000000002
 50
180
 51
270
  0
ARC
  8
_0-1_
  6
CONTINUOUS
 62
    7
 10
-56.726588639276599
 20
-22.923785982109141
 40
1.6980000000000002
 50
90
 51
180
  0
ARC
  8
_0-1_
  6
CONTINUOUS
 62
    7
 10
-62.420588639276616
 20
-22.923785982109141
 40
1.6980000000000002
 50
0
 51
90
  0
ARC
  8
_0-1_
  6
CONTINUOUS
 62
    7
 10
-59.573588639276608
 20
-20.076785982109136
 40
5.3100000000000005
 50
347.52572631835937
 51
12.474273681640634
  0
ARC
  8
_0-1_
  6
CONTINUOUS
 62
    7
 10
-59.573588639276608
 20
-20.076785982109136
 40
5.3100000000000005
 50
77.52581787109375
 51
102.47418212890625
  0
ARC
  8
_0-1_
  6
CONTINUOUS
 62
    7
 10
-59.573588639276608
 20
-20.076785982109136
 40
5.3100000000000005
 50
167.52572631835937
 51
192.47427368164065
  0
ARC
  8
_0-1_
  6
CONTINUOUS
 62
    7
 10
-59.573588639276608
 20
-20.076785982109136
 40
5.3100000000000005
 50
257.52581787109375
 51
282.47418212890625
  0
LINE
  8
_0-1_
  6
CENTER1
 62
    4
 10
142.5329238788901
 20
27.923214049262292
 11
209.80877754989828
 21
27.923214049262292
  0
ENDBLK
  0
ENDSEC
  0
SECTION
  2
ENTITIES
  0
LINE
  8
ADD_LINE
  6
DOT
 62
    9
 10
808.01077559187627
 20
75
 11
808.01077559187627
 21
37.5
  0
LINE
  8
ADD_LINE
  6
DOT
 62
    9
 10
868.01077559187627
 20
75
 11
868.01077559187627
 21
37.5
  0
LINE
  8
ADD_LINE
  6
DOT
 62
    9
 10
1230.7661633878142
 20
75
 11
1230.7661633878142
 21
37.5
  0
LINE
  8
ADD_LINE
  6
DOT
 62
    9
 10
90.811598387814286
 20
75
 11
90.811598387814286
 21
37.5
  0
TEXT
  8
_f-a__
 62
    7
 10
434.41118698984519
 20
75
 40
9
 41
0.8333333333333333
 50
0
  1
名　　称
  0
TEXT
  8
_f-a__
 62
    7
 10
823.01077559187627
 20
75
 40
9
 41
0.8333333333333333
 50
0
  1
縮　　尺
  0
TEXT
  8
_f-a__
 62
    7
 10
1034.3884694898452
 20
75
 40
9
 41
0.8333333333333333
 50
0
  1
品　　番
  0
LINE
  8
ADD_LINE
  6
DOT
 62
    9
 10
90.811598387814286
 20
75
 11
1230.7661633878142
 21
75
  0
LINE
  8
ADD_LINE
  6
DOT
 62
    9
 10
90.811598387814286
 20
37.5
 11
1230.7661633878142
 21
37.5
  0
LINE
  8
_0-2__
  6
CONTINUOUS
 62
    7
 10
194.97718906669485
 20
410.62754801818517
 11
659.97718906669479
 21
410.62754801818505
  0
LINE
  8
_0-2__
  6
CONTINUOUS
 62
    7
 10
194.97718906669485
 20
423.12754801818517
 11
659.97718906669479
 21
423.12754801818505
  0
LINE
  8
_0-1_
  6
CENTER1
 62
    4
 10
427.47718906669485
 20
400.10714463311388
 11
427.47718906669485
 21
620.27107535751543
  0
LINE
  8
_0-1_
  6
CENTER1
 62
    4
 10
214.97718906669473
 20
409.22348945082308
 11
214.97718906669473
 21
426.15234856263203
  0
LINE
  8
_0-1_
  6
CENTER1
 62
    4
 10
207.19596392031286
 20
417.32754801817509
 11
223.39590857251341
 21
417.32754801817498
  0
LINE
  8
_0-1_
  6
CENTER1
 62
    4
 10
314.97718906669485
 20
409.22348945082308
 11
314.97718906669485
 21
426.15234856263203
  0
LINE
  8
_0-1_
  6
CENTER1
 62
    4
 10
307.19596392031298
 20
417.32754801817498
 11
323.39590857251318
 21
417.32754801817498
  0
LINE
  8
_0-1_
  6
CENTER1
 62
    4
 10
639.97718906669502
 20
409.22348945082297
 11
639.97718906669502
 21
426.15234856263203
  0
LINE
  8
_0-1_
  6
CENTER1
 62
    4
 10
647.75841421307678
 20
417.32754801817487
 11
631.55846956087646
 21
417.32754801817487
  0
LINE
  8
_0-1_
  6
CENTER1
 62
    4
 10
539.97718906669479
 20
409.22348945082308
 11
539.97718906669479
 21
426.15234856263203
  0
LINE
  8
_0-1_
  6
CENTER1
 62
    4
 10
547.75841421307678
 20
417.32754801817498
 11
531.55846956087657
 21
417.32754801817498
  0
LINE
  8
_0-2__
  6
CONTINUOUS
 62
    7
 10
194.97718906669485
 20
590.62754801818517
 11
194.97718906669485
 21
605.62754801818517
  0
LINE
  8
_0-2__
  6
CONTINUOUS
 62
    7
 10
194.97718906669485
 20
410.62754801818517
 11
194.97718906669485
 21
423.12754801818517
  0
LINE
  8
_0-2__
  6
CONTINUOUS
 62
    7
 10
659.97718906669479
 20
590.62754801818505
 11
659.97718906669479
 21
605.62754801818505
  0
LINE
  8
_0-2__
  6
CONTINUOUS
 62
    7
 10
659.97718906669479
 20
410.62754801818505
 11
659.97718906669479
 21
423.12754801818505
  0
CIRCLE
  8
_0-2__
  6
CONTINUOUS
 62
    7
 10
214.97718906669473
 20
417.32754801817498
 40
4
  0
CIRCLE
  8
_0-2__
  6
CONTINUOUS
 62
    7
 10
314.97718906669485
 20
417.32754801817498
 40
4
  0
CIRCLE
  8
_0-2__
  6
CONTINUOUS
 62
    7
 10
539.97718906669479
 20
417.32754801817498
 40
4
  0
CIRCLE
  8
_0-2__
  6
CONTINUOUS
 62
    7
 10
639.97718906669502
 20
417.32754801817487
 40
4
  0
LINE
  8
_0-2__
  6
CONTINUOUS
 62
    7
 10
734.63891701049624
 20
421.1275480181846
 11
659.97718906669479
 21
421.1275480181846
  0
LINE
  8
_0-2__
  6
CONTINUOUS
 62
    7
 10
734.63891701049624
 20
413.12754801818465
 11
659.97718906669479
 21
413.12754801818465
  0
LINE
  8
_0-3__
  6
DASHED1
 62
    3
 10
659.97718906669479
 20
427.47757333725178
 11
659.97718906669479
 21
586.614561793446
  0
LINE
  8
_0-2__
  6
CONTINUOUS
 62
    7
 10
194.97718906669485
 20
590.62754801818505
 11
194.97718906669485
 21
605.62754801818505
  0
LINE
  8
_0-3__
  6
DASHED1
 62
    3
 10
194.97718906669485
 20
427.47757333725201
 11
194.97718906669485
 21
586.614561793446
  0
LINE
  8
_0-1_
  6
CENTER1
 62
    4
 10
734.63891701049624
 20
508.12754801818517
 11
141.07917524942928
 21
508.12754801818522
  0
LINE
  8
_0-2__
  6
CONTINUOUS
 62
    7
 10
141.07917524942928
 20
421.12754801818471
 11
194.97718906669485
 21
421.1275480181846
  0
LINE
  8
_0-2__
  6
CONTINUOUS
 62
    7
 10
141.07917524942928
 20
413.12754801818483
 11
194.97718906669485
 21
413.12754801818471
  0
LINE
  8
_0-2__
  6
CONTINUOUS
 62
    7
 10
734.63891701049624
 20
433.1275480181846
 11
497.47718906669479
 21
433.1275480181846
  0
LINE
  8
_0-2__
  6
CONTINUOUS
 62
    7
 10
497.47718906669479
 20
423.12754801818505
 11
497.47718906669479
 21
590.62754801818505
  0
LINE
  8
_0-3__
  6
DASHED1
 62
    3
 10
659.97718906669479
 20
421.1275480181846
 11
497.47718906669479
 21
421.1275480181846
  0
LINE
  8
_0-3__
  6
DASHED1
 62
    3
 10
659.97718906669479
 20
413.12754801818465
 11
497.47718906669479
 21
413.12754801818471
  0
LINE
  8
_0-3__
  6
DASHED1
 62
    3
 10
497.47718906669479
 20
603.12754801818471
 11
497.47718906669479
 21
590.62754801818517
  0
LINE
  8
_0-3__
  6
DASHED1
 62
    3
 10
497.47718906669479
 20
413.12754801818471
 11
497.47718906669479
 21
423.12754801818505
  0
LINE
  8
_0-2__
  6
CONTINUOUS
 62
    7
 10
357.47718906669485
 20
423.12754801818505
 11
357.4771890666949
 21
590.62754801818505
  0
LINE
  8
_0-3__
  6
DASHED1
 62
    3
 10
194.97718906669485
 20
421.1275480181846
 11
357.47718906669485
 21
421.1275480181846
  0
LINE
  8
_0-3__
  6
DASHED1
 62
    3
 10
194.97718906669485
 20
413.12754801818471
 11
357.47718906669485
 21
413.12754801818471
  0
LINE
  8
_0-3__
  6
DASHED1
 62
    3
 10
357.4771890666949
 20
603.12754801818471
 11
357.4771890666949
 21
590.62754801818517
  0
LINE
  8
_0-3__
  6
DASHED1
 62
    3
 10
357.47718906669485
 20
413.12754801818471
 11
357.47718906669485
 21
423.12754801818505
  0
LINE
  8
_0-2__
  6
CONTINUOUS
 62
    7
 10
141.07917524942928
 20
433.12754801818471
 11
357.47718906669485
 21
433.1275480181846
  0
LINE
  8
_0-1_
  6
CENTER1
 62
    4
 10
597.47718906669479
 20
396.33811749925746
 11
597.47718906669479
 21
665.5208840160924
  0
LINE
  8
_0-2__
  6
CONTINUOUS
 62
    7
 10
734.63891701049624
 20
603.12754801818483
 11
659.97718906669479
 21
603.12754801818483
  0
LINE
  8
_0-2__
  6
CONTINUOUS
 62
    7
 10
734.63891701049624
 20
593.1275480181846
 11
659.97718906669479
 21
593.1275480181846
  0
LINE
  8
_0-2__
  6
CONTINUOUS
 62
    7
 10
141.07917524942928
 20
603.12754801818483
 11
194.97718906669485
 21
603.12754801818483
  0
LINE
  8
_0-2__
  6
CONTINUOUS
 62
    7
 10
141.07917524942928
 20
593.12754801818483
 11
194.97718906669485
 21
593.12754801818471
  0
LINE
  8
_0-2__
  6
CONTINUOUS
 62
    7
 10
617.97718906669468
 20
605.62754801818505
 11
659.97718906669479
 21
605.62754801818505
  0
LINE
  8
_0-2__
  6
CONTINUOUS
 62
    7
 10
617.97718906669468
 20
590.62754801818505
 11
659.97718906669479
 21
590.62754801818505
  0
LINE
  8
_0-3__
  6
DASHED1
 62
    3
 10
659.97718906669479
 20
603.1275480181846
 11
617.97718906669468
 21
603.12754801818471
  0
LINE
  8
_0-3__
  6
DASHED1
 62
    3
 10
576.97718906669456
 20
603.12754801818471
 11
497.47718906669479
 21
603.12754801818471
  0
LINE
  8
_0-3__
  6
DASHED1
 62
    3
 10
659.97718906669479
 20
593.1275480181846
 11
617.97718906669468
 21
593.1275480181846
  0
LINE
  8
_0-3__
  6
DASHED1
 62
    3
 10
576.97718906669456
 20
593.1275480181846
 11
497.47718906669479
 21
593.1275480181846
  0
LINE
  8
_0-1_
  6
CENTER1
 62
    4
 10
257.47718906669496
 20
396.33811749925746
 11
257.47718906669496
 21
665.5208840160924
  0
LINE
  8
_0-2__
  6
CONTINUOUS
 62
    7
 10
194.97718906669485
 20
605.62754801818517
 11
236.97718906669502
 21
605.62754801818517
  0
LINE
  8
_0-2__
  6
CONTINUOUS
 62
    7
 10
277.97718906669508
 20
605.62754801818517
 11
576.97718906669456
 21
605.62754801818505
  0
LINE
  8
_0-2__
  6
CONTINUOUS
 62
    7
 10
194.97718906669485
 20
590.62754801818517
 11
236.97718906669502
 21
590.62754801818517
  0
LINE
  8
_0-2__
  6
CONTINUOUS
 62
    7
 10
277.97718906669508
 20
590.62754801818517
 11
576.97718906669456
 21
590.62754801818505
  0
LINE
  8
_0-3__
  6
DASHED1
 62
    3
 10
194.97718906669485
 20
603.12754801818471
 11
236.97718906669502
 21
603.12754801818471
  0
LINE
  8
_0-3__
  6
DASHED1
 62
    3
 10
277.97718906669508
 20
603.12754801818471
 11
357.4771890666949
 21
603.12754801818471
  0
LINE
  8
_0-3__
  6
DASHED1
 62
    3
 10
194.97718906669485
 20
593.1275480181846
 11
236.97718906669502
 21
593.1275480181846
  0
LINE
  8
_0-3__
  6
DASHED1
 62
    3
 10
277.97718906669508
 20
593.1275480181846
 11
357.4771890666949
 21
593.1275480181846
  0
TEXT
  8
_0-a__
 62
    3
 10
828.26077559187627
 20
48.75
 40
15
 41
0.8
 50
0
  1
1/2
  0
POINT
  8
_0-9__
 62
    4
 10
257.47718906669496
 20
376.10714463311388
  0
POINT
  8
_0-9__
 62
    4
 10
357.47718906669485
 20
376.10714463311388
  0
LINE
  8
_0-9__
  6
CONTINUOUS
 62
    4
 10
257.47718906669496
 20
373.10714463311388
 11
257.47718906669496
 21
393.33811749925746
  0
LINE
  8
_0-9__
  6
CONTINUOUS
 62
    4
 10
357.47718906669485
 20
373.10714463311388
 11
357.47718906669485
 21
410.12754801818471
  0
LINE
  8
_0-9__
  6
CONTINUOUS
 62
    4
 10
257.47718906669496
 20
376.10714463311388
 11
357.47718906669485
 21
376.10714463311388
  0
TEXT
  8
_0-9__
 62
    3
 10
297.7271890666949
 20
377.60714463311388
 40
15
 41
0.8
 50
0
  1
100
  0
POINT
  8
_0-9__
 62
    4
 10
497.47718906669479
 20
376.10714463311388
  0
LINE
  8
_0-9__
  6
CONTINUOUS
 62
    4
 10
497.47718906669479
 20
373.10714463311388
 11
497.47718906669479
 21
410.12754801818471
  0
LINE
  8
_0-9__
  6
CONTINUOUS
 62
    4
 10
357.47718906669485
 20
376.10714463311388
 11
497.47718906669479
 21
376.10714463311388
  0
TEXT
  8
_0-9__
 62
    3
 10
417.72718906669485
 20
377.60714463311388
 40
15
 41
0.8
 50
0
  1
140
  0
POINT
  8
_0-9__
 62
    4
 10
597.47718906669479
 20
376.10714463311388
  0
LINE
  8
_0-9__
  6
CONTINUOUS
 62
    4
 10
597.47718906669479
 20
373.10714463311388
 11
597.47718906669479
 21
393.33811749925746
  0
LINE
  8
_0-9__
  6
CONTINUOUS
 62
    4
 10
497.47718906669479
 20
376.10714463311388
 11
597.47718906669479
 21
376.10714463311388
  0
TEXT
  8
_0-9__
 62
    3
 10
537.72718906669468
 20
377.60714463311388
 40
15
 41
0.8
 50
0
  1
100
  0
POINT
  8
_0-9__
 62
    4
 10
194.97718906669485
 20
352.10714463311388
  0
POINT
  8
_0-9__
 62
    4
 10
659.97718906669479
 20
352.10714463311388
  0
LINE
  8
_0-9__
  6
CONTINUOUS
 62
    4
 10
194.97718906669485
 20
349.10714463311388
 11
194.97718906669485
 21
407.62754801818517
  0
LINE
  8
_0-9__
  6
CONTINUOUS
 62
    4
 10
659.97718906669479
 20
349.10714463311388
 11
659.97718906669479
 21
407.62754801818505
  0
LINE
  8
_0-9__
  6
CONTINUOUS
 62
    4
 10
194.97718906669485
 20
352.10714463311388
 11
659.97718906669479
 21
352.10714463311388
  0
TEXT
  8
_0-9__
 62
    3
 10
417.72718906669485
 20
353.60714463311388
 40
15
 41
0.8
 50
0
  1
465
  0
POINT
  8
_0-9__
 62
    4
 10
257.47718906669496
 20
683.86326911393849
  0
POINT
  8
_0-9__
 62
    4
 10
427.47718906669485
 20
683.86326911393849
  0
LINE
  8
_0-9__
  6
CONTINUOUS
 62
    4
 10
257.47718906669496
 20
686.86326911393849
 11
257.47718906669496
 21
668.5208840160924
  0
LINE
  8
_0-9__
  6
CONTINUOUS
 62
    4
 10
427.47718906669485
 20
686.86326911393849
 11
427.47718906669485
 21
623.27107535751543
  0
LINE
  8
_0-9__
  6
CONTINUOUS
 62
    4
 10
257.47718906669496
 20
683.86326911393849
 11
427.47718906669485
 21
683.86326911393849
  0
TEXT
  8
_0-9__
 62
    3
 10
332.7271890666949
 20
685.36326911393849
 40
15
 41
0.8
 50
0
  1
170
  0
POINT
  8
_0-9__
 62
    4
 10
597.47718906669479
 20
683.86326911393849
  0
LINE
  8
_0-9__
  6
CONTINUOUS
 62
    4
 10
597.47718906669479
 20
686.86326911393849
 11
597.47718906669479
 21
668.5208840160924
  0
LINE
  8
_0-9__
  6
CONTINUOUS
 62
    4
 10
427.47718906669485
 20
683.86326911393849
 11
597.47718906669479
 21
683.86326911393849
  0
TEXT
  8
_0-9__
 62
    3
 10
502.72718906669479
 20
685.36326911393849
 40
15
 41
0.8
 50
0
  1
170
  0
POINT
  8
_0-9__
 62
    4
 10
708.47771821814979
 20
413.12754801818465
  0
POINT
  8
_0-9__
 62
    4
 10
708.4777182181499
 20
603.12754801818483
  0
LINE
  8
_0-9__
  6
CONTINUOUS
 62
    4
 10
708.47771821814979
 20
413.12754801818465
 11
708.4777182181499
 21
603.12754801818483
  0
TEXT
  8
_0-9__
 62
    3
 10
706.9777182181499
 20
498.37754801818471
 40
15
 41
0.8
 50
90
  1
190
  0
POINT
  8
_0-9__
 62
    4
 10
878.63953642623665
 20
376.10714463311388
  0
POINT
  8
_0-9__
 62
    4
 10
1008.1395364263468
 20
376.10714463311388
  0
LINE
  8
_0-9__
  6
CONTINUOUS
 62
    4
 10
878.63953642623665
 20
373.10714463311388
 11
878.63953642623665
 21
408.62754801819278
  0
LINE
  8
_0-9__
  6
CONTINUOUS
 62
    4
 10
878.63953642623665
 20
376.10714463311388
 11
1008.1395364263468
 21
376.10714463311388
  0
TEXT
  8
_0-9__
 62
    3
 10
926.88953642629178
 20
377.60714463311388
 40
15
 41
0.8
 50
0
  1
129.5
  0
POINT
  8
_0-9__
 62
    4
 10
898.13953642634669
 20
683.86326911393849
  0
POINT
  8
_0-9__
 62
    4
 10
1008.1395364263468
 20
683.86326911393849
  0
LINE
  8
_0-9__
  6
CONTINUOUS
 62
    4
 10
898.13953642634669
 20
686.86326911393849
 11
898.13953642634669
 21
607.62754801818505
  0
LINE
  8
_0-9__
  6
CONTINUOUS
 62
    4
 10
1008.1395364263468
 20
686.86326911393849
 11
1008.1395364263468
 21
603.12754801818505
  0
LINE
  8
_0-9__
  6
CONTINUOUS
 62
    4
 10
898.13953642634669
 20
683.86326911393849
 11
1008.1395364263468
 21
683.86326911393849
  0
TEXT
  8
_0-9__
 62
    3
 10
943.38953642634669
 20
685.36326911393849
 40
15
 41
0.8
 50
0
  1
110
  0
POINT
  8
_0-9__
 62
    4
 10
854.63953642623665
 20
410.62754801818517
  0
POINT
  8
_0-9__
 62
    4
 10
854.63953642623665
 20
423.12754801818511
  0
LINE
  8
_0-9__
  6
CONTINUOUS
 62
    4
 10
851.63953642623665
 20
410.62754801818517
 11
876.63953642623653
 21
410.62754801818517
  0
LINE
  8
_0-9__
  6
CONTINUOUS
 62
    4
 10
851.63953642623665
 20
423.12754801818511
 11
876.63953642630668
 21
423.12754801818511
  0
LINE
  8
_0-9__
  6
CONTINUOUS
 62
    4
 10
854.63953642623665
 20
410.62754801818517
 11
854.63953642623665
 21
423.12754801818511
  0
TEXT
  8
_0-9__
 62
    3
 10
853.13953642623665
 20
403.75254801818517
 40
15
 41
0.8
 50
90
  1
12.5
  0
POINT
  8
_0-9__
 62
    4
 10
945.08330741002987
 20
590.62754801818517
  0
POINT
  8
_0-9__
 62
    4
 10
945.08330741002987
 20
605.62754801818517
  0
LINE
  8
_0-9__
  6
CONTINUOUS
 62
    4
 10
948.08330741002987
 20
590.62754801818517
 11
903.63953642634692
 21
590.62754801818517
  0
LINE
  8
_0-9__
  6
CONTINUOUS
 62
    4
 10
945.08330741002987
 20
590.62754801818517
 11
945.08330741002987
 21
605.62754801818517
  0
TEXT
  8
_0-9__
 62
    3
 10
943.58330741002987
 20
608.11482734600838
 40
15
 41
0.8
 50
90
  1
15
  0
POINT
  8
_0-9__
 62
    4
 10
1008.1395364263468
 20
376.10714463311388
  0
POINT
  8
_0-9__
 62
    4
 10
1068.1395364263467
 20
376.10714463311388
  0
LINE
  8
_0-a__
  6
CONTINUOUS
 62
    4
 10
844.6914367675779
 20
367.22767639160162
 11
777.54144287109409
 21
367.22767639160162
  0
LINE
  8
_0-a__
  6
CONTINUOUS
 62
    4
 10
877.09211730957009
 20
414.75420951843256
 11
873.39080810546898
 21
406.55052947998047
  0
LINE
  8
_0-a__
  6
CONTINUOUS
 62
    4
 10
877.09211730957009
 20
414.75420951843256
 11
870.80819702148392
 21
408.31119537353521
  0
LINE
  8
_0-a__
  6
CONTINUOUS
 62
    4
 10
877.09211730957009
 20
414.75420951843256
 11
844.6914367675779
 21
367.22767639160162
  0
TEXT
  8
_0-a__
 62
    3
 10
781.60810852050804
 20
349.42768096923828
 40
15
 41
0.8
 50
0
  1
4x16(SUS)
  0
TEXT
  8
_0-a__
 62
    3
 10
781.60810852050804
 20
370.02767944335943
 40
15
 41
0.8
 50
0
  1
ﾅﾍﾞﾃｸｽﾋﾞｽ
  0
INSERT
  2
-001-JEJ-12N
  8
_0-b__
 10
932.48691076776845
 20
508.56308859937343
 41
0.3333333333333333
 42
0.3333333333333333
 50
90
  0
INSERT
  2
-000-NT-12N
  8
_0-b__
 10
944.55558404443502
 20
508.46229172616069
 41
0.3333333333333333
 42
0.3333333333333333
 50
90
  0
LINE
  8
_0-1_
  6
CENTER1
 62
    4
 10
984.56461741744602
 20
537.62754801724304
 11
1081.3039950710825
 21
537.62754801724304
  0
LINE
  8
_0-9__
  6
CONTINUOUS
 62
    4
 10
1008.1395364263468
 20
373.10714463311388
 11
1008.1395364263468
 21
471.71508370880969
  0
POINT
  8
_0-9__
 62
    4
 10
972.97372745747134
 20
410.62754801724304
  0
POINT
  8
_0-9__
 62
    4
 10
972.97372745747134
 20
605.62754801724304
  0
LINE
  8
_0-9__
  6
CONTINUOUS
 62
    4
 10
975.97372745747134
 20
410.62754801724304
 11
919.51576476422053
 21
410.62754801724304
  0
LINE
  8
_0-9__
  6
CONTINUOUS
 62
    4
 10
972.97372745747134
 20
410.62754801724304
 11
972.97372745747134
 21
605.62754801724304
  0
TEXT
  8
_0-9__
 62
    3
 10
971.47372745747134
 20
498.37754801724304
 40
15
 41
0.8
 50
90
  1
195
  0
TEXT
  8
_0-a__
 62
    3
 10
402.91118698984519
 20
48.75
 40
15
 41
0.8
 50
0
  1
Ａタイプ落し口
  0
INSERT
  2
-002-TX4X16O
  8
_0-b__
 10
885.30318462823061
 20
417.32381037721723
 41
0.3333333333333333
 42
0.3333333333333333
 50
90
  0
LINE
  8
_0-1_
  6
CENTER1
 62
    4
 10
896.15642174873688
 20
417.32754801817487
 11
873.3590998974696
 21
417.32754801817498
  0
INSERT
  2
-003-TK-A_1__1__1__1__1_
  8
_0-1_
 10
915.81587791696506
 20
508.25967485060528
 41
0.3333333333333333
 42
0.3333333333333333
 50
90
  0
INSERT
  2
-006-OTK-NT12
  8
_0-1_
 10
904.947274453163
 20
567.98541089724313
 41
0.3333333333333333
 42
0.3333333333333333
 50
90
  0
INSERT
  2
-005-OTK-NT12-H
  8
_0-1_
 10
257.02601279439563
 20
525.21077881955421
 41
1
 42
1
 50
0
  0
INSERT
  2
-005-OTK-NT12-H
  8
_0-1_
 10
597.02601279439546
 20
525.21077881955421
 41
1
 42
1
 50
0
  0
LINE
  8
_0-2__
  6
CONTINUOUS
 62
    7
 10
141.07917524942928
 20
586.12754801818471
 11
236.97718906669502
 21
586.1275480181846
  0
LINE
  8
_0-2__
  6
CONTINUOUS
 62
    7
 10
277.97718906669508
 20
586.1275480181846
 11
357.4771890666949
 21
586.1275480181846
  0
LINE
  8
_0-2__
  6
CONTINUOUS
 62
    7
 10
576.97718906669456
 20
586.1275480181846
 11
497.47718906669479
 21
586.1275480181846
  0
LINE
  8
_0-2__
  6
CONTINUOUS
 62
    7
 10
734.63891701049624
 20
586.1275480181846
 11
617.97718906669468
 21
586.1275480181846
  0
POINT
  8
_0-9__
 62
    4
 10
1006.1395364263467
 20
546.28480224171358
  0
POINT
  8
_0-9__
 62
    4
 10
1008.1395364263468
 20
546.28480224171358
  0
LINE
  8
_0-9__
  6
CONTINUOUS
 62
    4
 10
1006.1395364263467
 20
546.28480224171358
 11
1008.1395364263468
 21
546.28480224171358
  0
TEXT
  8
_0-9__
 62
    3
 10
1012.6790562849944
 20
547.78480224171358
 40
15
 41
0.8
 50
0
  1
2
  0
LINE
  8
_0-9__
  6
CONTINUOUS
 62
    4
 10
1108.3039950710825
 20
565.77754801724302
 11
1071.1395364470823
 21
565.77754801724302
  0
LINE
  8
_0-9__
  6
CONTINUOUS
 62
    4
 10
1068.1395364263467
 20
373.10714463311388
 11
1068.1395364263467
 21
506.47754801724301
  0
LINE
  8
_0-9__
  6
CONTINUOUS
 62
    4
 10
1108.3039950710825
 20
509.47754801724301
 11
1071.1395364470823
 21
509.47754801724301
  0
LINE
  8
_0-2__
  6
CONTINUOUS
 62
    7
 10
1068.1395364470823
 20
509.4775480172425
 11
1068.1395364470823
 21
565.77754801724302
  0
CIRCLE
  8
_0-1_
  6
CONTINUOUS
 62
    7
 10
427.47718906669485
 20
537.62754801724316
 40
26.650000000000006
  0
LINE
  8
_0-1_
  6
CENTER1
 62
    4
 10
387.58617158571815
 20
537.62754801724316
 11
465.51211063376633
 21
537.62754801724316
  0
POINT
  8
_0-9__
 62
    4
 10
1105.3039950710825
 20
565.77754801724313
  0
POINT
  8
_0-9__
 62
    4
 10
1105.3039950710825
 20
509.47754801724301
  0
LINE
  8
_0-9__
  6
CONTINUOUS
 62
    4
 10
1105.3039950710825
 20
509.47754801724301
 11
1105.3039950710825
 21
565.77754801724313
  0
TEXT
  8
_0-9__
 62
    3
 10
1103.8039950710825
 20
517.75254801724304
 40
15
 41
0.8
 50
90
  1
φ56.3
  0
TEXT
  8
_0-a__
 62
    3
 10
1012.6384694898452
 20
48.75
 40
15
 41
0.8
 50
0
  1
OTA-NT12-60
  0
LINE
  8
_0-2__
  6
CONTINUOUS
 62
    7
 10
1008.1395364470823
 20
509.47754801724301
 11
1068.1395364470825
 21
509.47754801724301
  0
LINE
  8
_0-2__
  6
CONTINUOUS
 62
    7
 10
1008.1395364470823
 20
565.77754801724302
 11
1068.1395364470825
 21
565.77754801724302
  0
LINE
  8
_0-9__
  6
CONTINUOUS
 62
    4
 10
1008.1395364263468
 20
376.10714463311388
 11
1068.1395364263467
 21
376.10714463311388
  0
TEXT
  8
_0-9__
 62
    3
 10
1031.7645364263467
 20
377.60714463311388
 40
15
 41
0.8
 50
0
  1
60
  0
ENDSEC
  0
EOF
