  0
SECTION
  2
HEADER
  9
$ACADVER
  1
AC1009
  9
$INSBASE
 10
0
 20
0
 30
0
  9
$EXTMIN
 10
0
 20
0
  9
$EXTMAX
 10
840
 20
594
  9
$LIMMIN
 10
0
 20
0
  9
$LIMMAX
 10
840
 20
594
  9
$LTSCALE
 40
2
  0
ENDSEC
  0
SECTION
  2
TABLES
  0
TABLE
  2
LTYPE
 70
     9
  0
LTYPE
  2
CONTINUOUS
 70
    64
  3
実線
 72
    65
 73
     0
 40
0.0
  0
LTYPE
  2
DASHED1
 70
    64
  3
--  --  --  --  --  --  --  --  
 72
    65
 73
     2
 40
2.5
 49
1.25
 49
-1.25
  0
LTYPE
  2
DASHED2
 70
    64
  3
----    ----    ----    ----    
 72
    65
 73
     2
 40
5.0
 49
2.5
 49
-2.5
  0
LTYPE
  2
DASHED3
 70
    64
  3
------  ------  ------  ------  
 72
    65
 73
     2
 40
5.0
 49
3.75
 49
-1.25
  0
LTYPE
  2
CENTER1
 70
    64
  3
----- - ----- - ----- - ----- - 
 72
    65
 73
     4
 40
10.0
 49
6.25
 49
-1.25
 49
1.25
 49
-1.25
  0
LTYPE
  2
CENTER2
 70
    64
  3
----------  --  ----------  --  
 72
    65
 73
     4
 40
20.0
 49
12.5
 49
-2.5
 49
2.5
 49
-2.5
  0
LTYPE
  2
PHANTOM1
 70
    64
  3
--- - - --- - - --- - - --- - - 
 72
    65
 73
     6
 40
10.0
 49
3.25
 49
-1.25
 49
1.25
 49
-1.25
 49
1.25
 49
-1.25
  0
LTYPE
  2
PHANTOM2
 70
    64
  3
--------  -  -  --------  -  -  
 72
    65
 73
     6
 40
20.0
 49
10.0
 49
-2.5
 49
1.25
 49
-2.5
 49
1.25
 49
-2.5
  0
LTYPE
  2
DOT
 70
    64
  3
-   -   -   -   -   -   -   -   
 72
    65
 73
     2
 40
2.5
 49
0.625
 49
-1.875
  0
LTYPE
  2
DUMMY
 70
    64
  3
ダミー
 72
    65
 73
     0
 40
0.0
  0
LTYPE
  2
RAND1
 70
    64
  3
ランダム線1
 72
    65
 73
     4
 40
10.0
 49
1.0
 49
-2.0
 49
3.0
 49
-4.0
  0
LTYPE
  2
RAND2
 70
    64
  3
ランダム線2
 72
    65
 73
     4
 40
14.0
 49
2.0
 49
-3.0
 49
4.0
 49
-5.0
  0
LTYPE
  2
RAND3
 70
    64
  3
ランダム線3
 72
    65
 73
     4
 40
18.0
 49
3.0
 49
-4.0
 49
5.0
 49
-6.0
  0
LTYPE
  2
RAND4
 70
    64
  3
ランダム線4
 72
    65
 73
     4
 40
22.0
 49
4.0
 49
-5.0
 49
6.0
 49
-7.0
  0
LTYPE
  2
RAND5
 70
    64
  3
ランダム線5
 72
    65
 73
     4
 40
26.0
 49
5.0
 49
-6.0
 49
7.0
 49
-8.0
  0
LTYPE
  2
LONG1
 70
    64
  3
----------  --  ----------  --  
 72
    65
 73
     4
 40
40.0
 49
32.5
 49
-2.5
 49
2.5
 49
-2.5
  0
LTYPE
  2
LONG2
 70
    64
  3
--------  -  -  --------  -  -  
 72
    65
 73
     6
 40
40.0
 49
30.0
 49
-2.5
 49
1.25
 49
-2.5
 49
1.25
 49
-2.5
  0
LTYPE
  2
LONG3
 70
    64
  3
+++++++++++++++..+++++++++++++++
 72
    65
 73
     2
 40
40.0
 49
37.5
 49
-2.5
  0
LTYPE
  2
LONG4
 70
    64
  3
+++++++++++++++..+++++++++++++++
 72
    65
 73
     2
 40
80.0
 49
75.0
 49
-5.0
  0
LTYPE
  2
LONG5
 70
    64
  3
----------  --  ----------  --  
 72
    65
 73
     4
 40
60.0
 49
37.5
 49
-7.5
 49
7.5
 49
-7.5
  0
LTYPE
  2
dashed
 70
   64
  3
-------   -------------   ------
 72
   65
 73
    2
 40
7.5
 49
6
 49
-1.5
  0
LTYPE
  2
dashed_spaced
 70
   64
  3
----        --------        ----
 72
   65
 73
    2
 40
12
 49
6
 49
-6
  0
LTYPE
  2
long_dashed_dotted
 70
   64
  3
------------- --- --------------
 72
   65
 73
    4
 40
15.25
 49
12
 49
-1.5
 49
0.25
 49
-1.5
  0
LTYPE
  2
long_dashed_double-dotted
 70
   64
  3
----------- --- --- ------------
 72
   65
 73
    6
 40
17
 49
12
 49
-1.5
 49
0.25
 49
-1.5
 49
0.25
 49
-1.5
  0
LTYPE
  2
long_dashed_triplicate-dotted
 70
   64
  3
--------- --- --- --- ----------
 72
   65
 73
    8
 40
18.75
 49
12
 49
-1.5
 49
0.25
 49
-1.5
 49
0.25
 49
-1.5
 49
0.25
 49
-1.5
  0
LTYPE
  2
dotted
 70
   64
  3
   -       -       -       -    
 72
   65
 73
    2
 40
1.75
 49
0.25
 49
-1.5
  0
LTYPE
  2
chain
 70
   64
  3
-------------- -- --------------
 72
   65
 73
    4
 40
18.5
 49
12
 49
-1.5
 49
3.5
 49
-1.5
  0
LTYPE
  2
chain_double_dash
 70
   64
  3
------------ -- -- -------------
 72
   65
 73
    6
 40
23.5
 49
12
 49
-1.5
 49
3.5
 49
-1.5
 49
3.5
 49
-1.5
  0
LTYPE
  2
dashed_dotted
 70
   64
  3
-----------     -     ----------
 72
   65
 73
    4
 40
9.25
 49
6
 49
-1.5
 49
0.25
 49
-1.5
  0
LTYPE
  2
double-dashed_dotted
 70
   64
  3
------   -----------   -   -----
 72
   65
 73
    6
 40
16.75
 49
6
 49
-1.5
 49
6
 49
-1.5
 49
0.25
 49
-1.5
  0
LTYPE
  2
dashed_double-dotted
 70
   64
  3
---------    -    -    ---------
 72
   65
 73
    6
 40
11
 49
6
 49
-1.5
 49
0.25
 49
-1.5
 49
0.25
 49
-1.5
  0
LTYPE
  2
double-dashed_double-dotted
 70
   64
  3
-----   ---------   -   -   ----
 72
   65
 73
    8
 40
18.5
 49
6
 49
-1.5
 49
6
 49
-1.5
 49
0.25
 49
-1.5
 49
0.25
 49
-1.5
  0
LTYPE
  2
dashed_triplicate-dotted
 70
   64
  3
-------    -    -    -    ------
 72
   65
 73
    8
 40
12.75
 49
6
 49
-1.5
 49
0.25
 49
-1.5
 49
0.25
 49
-1.5
 49
0.25
 49
-1.5
  0
LTYPE
  2
double-dashed_triplicate-dotted
 70
   64
  3
-----  ---------  -  -  -  -----
 72
   65
 73
   10
 40
20.25
 49
6
 49
-1.5
 49
6
 49
-1.5
 49
0.25
 49
-1.5
 49
0.25
 49
-1.5
 49
0.25
 49
-1.5
  0
LTYPE
  2
undefined
 70
   64
  3
--------------------------------
 72
   65
 73
    0
 40
0
  0
ENDTAB
  0
TABLE
  2
STYLE
  5
3
100
AcDbSymbolTable
 70
     1
  0
STYLE
  5
10
100
AcDbSymbolTableRecord
100
AcDbTextStyleTableRecord
  2
STANDARD
 70
     0
 40
0.0
 41
1.0
 50
0.0
 71
     0
 42
0.2
  3
txt
  4
bigfont.shx
  0
STYLE
  5
26
100
AcDbSymbolTableRecord
100
AcDbTextStyleTableRecord
  2
TATEGAKI
 70
    68
 40
0.0
 41
1.0
 50
0.0
 71
     0
 42
1.0
  3
txt
  4
bigfont.shx
  0
ENDTAB
  0
TABLE
  2
LAYER
 70
   10
  0
LAYER
  2
_0-1_
 70
   64
 62
    7
  6
CONTINUOUS
  0
LAYER
  2
_0-5__
 70
   64
 62
    7
  6
CONTINUOUS
  0
LAYER
  2
_0-9__
 70
   64
 62
    7
  6
CONTINUOUS
  0
LAYER
  2
_0-a__
 70
   64
 62
    7
  6
CONTINUOUS
  0
LAYER
  2
_1-0_
 70
   64
 62
    7
  6
CONTINUOUS
  0
LAYER
  2
_1-1_
 70
   64
 62
    7
  6
CONTINUOUS
  0
LAYER
  2
_1-9__
 70
   64
 62
    7
  6
CONTINUOUS
  0
LAYER
  2
_f-0_
 70
   64
 62
    7
  6
CONTINUOUS
  0
LAYER
  2
_f-a__
 70
   64
 62
    7
  6
CONTINUOUS
  0
LAYER
  2
ADD_LINE
 70
   64
 62
    7
  6
CONTINUOUS
  0
ENDTAB
  0
ENDSEC
  0
SECTION
  2
BLOCKS
  0
ENDSEC
  0
SECTION
  2
ENTITIES
  0
LINE
  8
_0-1_
  6
CONTINUOUS
 62
    7
 10
395.9072562732884
 20
197.67456891176911
 11
398.85872813586445
 21
197.67456891176911
  0
LINE
  8
_0-9__
  6
CONTINUOUS
 62
    4
 10
361.60725627328782
 20
103.67456891176917
 11
407.60725627328844
 21
103.67456891176917
  0
POINT
  8
_0-9__
 62
    4
 10
407.60725627328844
 20
103.67456891176917
  0
LINE
  8
_0-9__
  6
CONTINUOUS
 62
    4
 10
407.60725627328844
 20
101.67456891176917
 11
407.60725627328844
 21
141.97456891176918
  0
LINE
  8
ADD_LINE
  6
DOT
 62
    9
 10
538.67385039458418
 20
50
 11
538.67385039458418
 21
25
  0
LINE
  8
ADD_LINE
  6
DOT
 62
    9
 10
578.67385039458418
 20
50
 11
578.67385039458418
 21
25
  0
LINE
  8
ADD_LINE
  6
DOT
 62
    9
 10
820.51077559187615
 20
50
 11
820.51077559187615
 21
25
  0
LINE
  8
ADD_LINE
  6
DOT
 62
    9
 10
60.54106559187619
 20
50
 11
60.54106559187619
 21
25
  0
TEXT
  8
_f-a__
 62
    7
 10
289.60745799323013
 20
50
 40
6
 41
0.8333333333333333
 50
0
  1
名　　称
  0
TEXT
  8
_f-a__
 62
    7
 10
548.67385039458418
 20
50
 40
6
 41
0.8333333333333333
 50
0
  1
縮　　尺
  0
TEXT
  8
_f-a__
 62
    7
 10
689.59231299323017
 20
50
 40
6
 41
0.8333333333333333
 50
0
  1
品　　番
  0
LINE
  8
ADD_LINE
  6
DOT
 62
    9
 10
60.54106559187619
 20
50
 11
820.51077559187615
 21
50
  0
LINE
  8
ADD_LINE
  6
DOT
 62
    9
 10
60.54106559187619
 20
25
 11
820.51077559187615
 21
25
  0
TEXT
  8
_0-a__
 62
    3
 10
228.10745799323018
 20
32.5
 40
10
 41
0.8
 50
0
  1
出・入・角度・勾配自在調整吊金具
  0
TEXT
  8
_0-a__
 62
    3
 10
552.17385039458418
 20
32.5
 40
10
 41
0.8
 50
0
  1
1/2
  0
LINE
  8
_1-0_
  6
DASHED1
 62
    3
 10
315.35852731841248
 20
495.85456974526534
 11
305.50212085763098
 21
495.85456974534998
  0
LINE
  8
_1-0_
  6
DASHED1
 62
    3
 10
315.35852731841248
 20
483.85456974526534
 11
307.35852731840453
 21
483.85456974533417
  0
LINE
  8
_1-0_
  6
DASHED1
 62
    3
 10
555.57223606865898
 20
483.85456974526534
 11
547.57223606865114
 21
483.85456974533417
  0
LINE
  8
_1-0_
  6
DASHED1
 62
    3
 10
555.57223606865898
 20
495.85456974526534
 11
545.71582960787748
 21
495.85456974534998
  0
LINE
  8
_1-0_
  6
DASHED1
 62
    3
 10
435.46538169353573
 20
483.85456974526534
 11
427.46538169352783
 21
483.85456974533417
  0
LINE
  8
_1-0_
  6
DASHED1
 62
    3
 10
435.46538169353573
 20
495.85456974526534
 11
425.60897523275423
 21
495.85456974534998
  0
TEXT
  8
_1-0_
 62
    3
 10
303.20569246418643
 20
400.21533125718747
 40
10
 41
0.8
 50
0
  1
3寸勾配
  0
TEXT
  8
_1-0_
 62
    3
 10
426.78536675880048
 20
399.04580752569274
 40
10
 41
0.8
 50
0
  1
4寸勾配
  0
TEXT
  8
_1-0_
 62
    3
 10
549.19551732191974
 20
396.70676006270321
 40
10
 41
0.8
 50
0
  1
5寸勾配
  0
TEXT
  8
_1-0_
 62
    3
 10
536.67995700780602
 20
383.94831360670264
 40
10
 41
0.8
 50
0
  1
(最大7寸勾配)
  0
TEXT
  8
_0-a__
 62
    3
 10
681.84231299323017
 20
32.5
 40
10
 41
0.8
 50
0
  1
OTK-NT12
  0
LINE
  8
_1-1_
  6
CENTER1
 62
    4
 10
275.52459693891217
 20
489.85456974519866
 11
321.1960564632281
 21
489.8545697447762
  0
LINE
  8
_1-1_
  6
CENTER1
 62
    4
 10
395.69783641085678
 20
489.85456974519752
 11
441.16510320700428
 21
489.85456974477768
  0
LINE
  8
_1-1_
  6
CENTER1
 62
    4
 10
517.062556209626
 20
489.85456974517047
 11
561.79157923263097
 21
489.85456974478086
  0
LINE
  8
_1-0_
  6
CONTINUOUS
 62
    7
 10
279.06240471453611
 20
495.8545697451907
 11
279.06240471413696
 21
483.8545697451907
  0
LINE
  8
_1-0_
  6
CONTINUOUS
 62
    7
 10
278.06240471411957
 20
494.85456974477438
 11
279.0624047145111
 21
495.85456974516569
  0
LINE
  8
_1-0_
  6
CONTINUOUS
 62
    7
 10
278.06240471411957
 20
494.85456974517513
 11
278.06240471411957
 21
484.85456974517513
  0
LINE
  8
_1-0_
  6
CONTINUOUS
 62
    7
 10
278.06240471412775
 20
484.85456974520002
 11
279.06240471416186
 21
483.85456974516569
  0
LINE
  8
_1-0_
  6
CONTINUOUS
 62
    7
 10
307.35852731841271
 20
483.85456974490444
 11
279.06240471416186
 21
483.85456974516569
  0
LINE
  8
_1-0_
  6
CONTINUOUS
 62
    7
 10
305.50212085787859
 20
495.85456974492109
 11
279.0624047145111
 21
495.85456974516569
  0
LINE
  8
_1-0_
  6
CONTINUOUS
 62
    7
 10
316.46240471411113
 20
495.85456974527909
 11
316.46240471411113
 21
483.85456974527909
  0
LINE
  8
_1-0_
  6
CONTINUOUS
 62
    7
 10
318.06240471411149
 20
494.25456974526605
 11
316.46240471411113
 21
495.85456974527909
  0
LINE
  8
_1-0_
  6
CONTINUOUS
 62
    7
 10
318.06240471411149
 20
494.25456974526605
 11
318.06240471411149
 21
485.45456974526587
  0
LINE
  8
_1-0_
  6
CONTINUOUS
 62
    7
 10
316.46240471411113
 20
483.85456974527909
 11
318.06240471411149
 21
485.45456974526587
  0
LINE
  8
_1-0_
  6
CONTINUOUS
 62
    7
 10
316.46240471411113
 20
483.85456974527909
 11
315.35852731841248
 21
483.85456974527909
  0
LINE
  8
_1-0_
  6
CONTINUOUS
 62
    7
 10
316.46240471411113
 20
495.85456974527909
 11
315.35852731841248
 21
495.85456974527909
  0
LINE
  8
_1-0_
  6
CONTINUOUS
 62
    7
 10
399.99724984872114
 20
495.8545697451907
 11
399.99724984832187
 21
483.8545697451907
  0
LINE
  8
_1-0_
  6
CONTINUOUS
 62
    7
 10
398.99724984830459
 20
494.85456974477438
 11
399.99724984868845
 21
495.85456974515802
  0
LINE
  8
_1-0_
  6
CONTINUOUS
 62
    7
 10
425.60897523300184
 20
495.85456974492109
 11
399.99724984868845
 21
495.85456974515802
  0
LINE
  8
_1-0_
  6
CONTINUOUS
 62
    7
 10
398.99724984830459
 20
494.85456974516751
 11
398.99724984830459
 21
484.85456974516745
  0
LINE
  8
_1-0_
  6
CONTINUOUS
 62
    7
 10
398.99724984831278
 20
484.85456974520002
 11
399.9972498483545
 21
483.85456974515807
  0
LINE
  8
_1-0_
  6
CONTINUOUS
 62
    7
 10
427.46538169353602
 20
483.85456974490444
 11
399.9972498483545
 21
483.85456974515807
  0
LINE
  8
_1-0_
  6
CONTINUOUS
 62
    7
 10
437.39724984829604
 20
495.85456974527909
 11
437.39724984829604
 21
483.85456974527909
  0
LINE
  8
_1-0_
  6
CONTINUOUS
 62
    7
 10
438.99724984829652
 20
494.25456974526605
 11
437.39724984829604
 21
495.85456974527909
  0
LINE
  8
_1-0_
  6
CONTINUOUS
 62
    7
 10
437.39724984829604
 20
483.85456974527909
 11
438.99724984829652
 21
485.45456974526587
  0
LINE
  8
_1-0_
  6
CONTINUOUS
 62
    7
 10
438.99724984829652
 20
494.25456974526605
 11
438.99724984829652
 21
485.45456974526587
  0
LINE
  8
_1-0_
  6
CONTINUOUS
 62
    7
 10
435.46538169353573
 20
483.85456974526534
 11
437.39724984829604
 21
483.85456974526534
  0
LINE
  8
_1-0_
  6
CONTINUOUS
 62
    7
 10
435.46538169353573
 20
495.85456974526534
 11
437.39724984829604
 21
495.85456974526534
  0
LINE
  8
_1-0_
  6
CONTINUOUS
 62
    7
 10
558.30010011348691
 20
495.85456974527909
 11
558.30010011348691
 21
483.85456974527909
  0
LINE
  8
_1-0_
  6
CONTINUOUS
 62
    7
 10
559.90010011348727
 20
494.25456974526605
 11
558.30010011348691
 21
495.85456974527909
  0
LINE
  8
_1-0_
  6
CONTINUOUS
 62
    7
 10
558.30010011348691
 20
483.85456974527909
 11
559.90010011348727
 21
485.45456974526587
  0
LINE
  8
_1-0_
  6
CONTINUOUS
 62
    7
 10
559.90010011348727
 20
485.45456974526587
 11
559.90010011348727
 21
494.25456974526605
  0
LINE
  8
_1-0_
  6
CONTINUOUS
 62
    7
 10
520.900100113912
 20
495.8545697451367
 11
520.90010011351274
 21
483.85456974513676
  0
LINE
  8
_1-0_
  6
CONTINUOUS
 62
    7
 10
547.57223606865932
 20
483.85456974490444
 11
520.90010011351274
 21
483.85456974513676
  0
LINE
  8
_1-0_
  6
CONTINUOUS
 62
    7
 10
519.90010011349545
 20
484.85456974520821
 11
520.90010011351274
 21
483.8545697451907
  0
LINE
  8
_1-0_
  6
CONTINUOUS
 62
    7
 10
519.90010011349545
 20
494.85456974477438
 11
519.90010011349545
 21
484.85456974520821
  0
LINE
  8
_1-0_
  6
CONTINUOUS
 62
    7
 10
519.90010011349545
 20
494.85456974477438
 11
520.900100113912
 21
495.8545697451907
  0
LINE
  8
_1-0_
  6
CONTINUOUS
 62
    7
 10
555.57223606865898
 20
483.85456974526534
 11
558.30010011348691
 21
483.85456974526534
  0
LINE
  8
_1-0_
  6
CONTINUOUS
 62
    7
 10
555.57223606865898
 20
495.85456974526534
 11
558.30010011348691
 21
495.85456974526534
  0
LINE
  8
_1-0_
  6
CONTINUOUS
 62
    7
 10
545.71582960812509
 20
495.85456974492109
 11
520.900100113912
 21
495.8545697451367
  0
LINE
  8
_1-0_
  6
CONTINUOUS
 62
    7
 10
446.86538169353599
 20
520.85456974495037
 11
440.96243796838337
 21
520.85456974495037
  0
ARC
  8
_1-0_
  6
CONTINUOUS
 62
    7
 10
428.06538169353564
 20
481.4545697449505
 40
0.6
 50
180
 51
315.00000000001148
  0
LINE
  8
_1-0_
  6
CONTINUOUS
 62
    7
 10
428.48964576224773
 20
481.03030567623853
 11
429.31390983078347
 21
481.85456974477449
  0
LINE
  8
_1-0_
  6
CONTINUOUS
 62
    7
 10
434.86538169353582
 20
481.85456974477449
 11
429.31390983078347
 21
481.85456974477449
  0
ARC
  8
_1-0_
  6
CONTINUOUS
 62
    7
 10
434.86538169353582
 20
482.45456974477452
 40
0.6
 50
270
 51
0
  0
LINE
  8
_1-0_
  6
CONTINUOUS
 62
    7
 10
435.46538169353573
 20
488.35751346992686
 11
435.46538169353573
 21
482.45456974477452
  0
ARC
  8
_1-0_
  6
CONTINUOUS
 62
    7
 10
434.86538169353582
 20
488.35751346992686
 40
0.6
 50
0
 51
44.999999999998039
  0
LINE
  8
_1-0_
  6
CONTINUOUS
 62
    7
 10
435.28964576224769
 20
488.78177753863872
 11
434.64111762482378
 21
489.43030567606263
  0
ARC
  8
_1-0_
  6
CONTINUOUS
 62
    7
 10
435.06538169353564
 20
489.85456974477449
 40
0.6
 50
135.00000000000384
 51
224.99999999999619
  0
LINE
  8
_1-0_
  6
CONTINUOUS
 62
    7
 10
435.28964576224769
 20
490.92736195091027
 11
434.64111762482378
 21
490.27883381348636
  0
ARC
  8
_1-0_
  6
CONTINUOUS
 62
    7
 10
434.8653816935356
 20
491.35162601962213
 40
0.6
 50
315.00000000000199
 51
0
  0
ARC
  8
_1-0_
  6
CONTINUOUS
 62
    7
 10
447.46902365899507
 20
500.44403968515877
 40
0.6
 50
156.92006633113297
 51
214.9999999999996
  0
LINE
  8
_1-0_
  6
CONTINUOUS
 62
    7
 10
435.46538169353573
 20
496.47012663798569
 11
435.46538169353573
 21
491.35162601962213
  0
ARC
  8
_1-0_
  6
CONTINUOUS
 62
    7
 10
439.46538169353596
 20
503.85456974495037
 40
8.0999999999999996
 50
336.92006633113311
 51
238.07993366886222
  0
ARC
  8
_1-0_
  6
CONTINUOUS
 62
    7
 10
434.86538169353577
 20
496.47012663798569
 40
0.6
 50
0
 51
58.079933668862189
  0
ARC
  8
_1-0_
  6
CONTINUOUS
 62
    7
 10
440.96243796838337
 20
520.25456974495035
 40
0.6
 50
90
 51
134.99999999999804
  0
LINE
  8
_1-0_
  6
CONTINUOUS
 62
    7
 10
440.53817389967151
 20
520.67883381366232
 11
439.8896457622476
 21
520.03030567623841
  0
ARC
  8
_1-0_
  6
CONTINUOUS
 62
    7
 10
439.46538169353573
 20
520.45456974495039
 40
0.6
 50
225.00000000000384
 51
314.99999999999619
  0
LINE
  8
_1-0_
  6
CONTINUOUS
 62
    7
 10
438.39258948739996
 20
520.67883381366232
 11
439.04111762482387
 21
520.03030567623841
  0
ARC
  8
_1-0_
  6
CONTINUOUS
 62
    7
 10
437.9683254186881
 20
520.25456974495035
 40
0.6
 50
45.000000000001982
 51
90
  0
ARC
  8
_1-0_
  6
CONTINUOUS
 62
    7
 10
423.51546006363446
 20
499.25456974495046
 40
0.6
 50
16.087702538161356
 51
90
  0
ARC
  8
_1-0_
  6
CONTINUOUS
 62
    7
 10
424.23383548180823
 20
510.45456974495045
 40
0.6
 50
270
 51
336.57237349127968
  0
LINE
  8
_1-0_
  6
CONTINUOUS
 62
    7
 10
427.46538169353573
 20
481.4545697449505
 11
427.46538169353573
 21
493.04716487606555
  0
ARC
  8
_1-0_
  6
CONTINUOUS
 62
    7
 10
439.46538169353596
 20
503.85456974495037
 40
16
 50
196.08770253816144
 51
220.62069995133447
  0
ARC
  8
_1-0_
  6
CONTINUOUS
 62
    7
 10
426.86538169353577
 20
493.04716487606555
 40
0.6
 50
0
 51
40.620699951334174
  0
ARC
  8
_1-0_
  6
CONTINUOUS
 62
    7
 10
439.46538169353596
 20
503.85456974495037
 40
16
 50
121.20303307281048
 51
156.57237349128019
  0
ARC
  8
_1-0_
  6
CONTINUOUS
 62
    7
 10
430.86538169353599
 20
518.05316122438944
 40
0.6
 50
301.20303307281097
 51
0
  0
LINE
  8
_1-0_
  6
CONTINUOUS
 62
    7
 10
431.46538169353596
 20
520.25456974495035
 11
431.46538169353596
 21
518.05316122438944
  0
LINE
  8
_1-0_
  6
CONTINUOUS
 62
    7
 10
432.06538169353598
 20
520.85456974495037
 11
437.9683254186881
 21
520.85456974495037
  0
ARC
  8
_1-0_
  6
CONTINUOUS
 62
    7
 10
432.06538169353598
 20
520.25456974495035
 40
0.6
 50
90
 51
180
  0
ARC
  8
_1-0_
  6
CONTINUOUS
 62
    7
 10
446.86538169353599
 20
520.25456974495035
 40
0.6
 50
0
 51
90
  0
LINE
  8
_1-0_
  6
CONTINUOUS
 62
    7
 10
447.46538169353596
 20
520.25456974495035
 11
447.46538169353596
 21
518.05316122438944
  0
ARC
  8
_1-0_
  6
CONTINUOUS
 62
    7
 10
448.06538169353598
 20
518.05316122438944
 40
0.6
 50
180
 51
238.79696692718906
  0
LINE
  8
_1-0_
  6
CONTINUOUS
 62
    7
 10
449.0707818198747
 20
497.11042388304287
 11
446.9775324324217
 21
500.09989382334811
  0
ARC
  8
_1-0_
  6
CONTINUOUS
 62
    7
 10
449.56227304644813
 20
497.45456974485347
 40
0.6
 50
214.99999999999903
 51
270
  0
LINE
  8
_1-0_
  6
CONTINUOUS
 62
    7
 10
449.56227304644813
 20
496.85456974485351
 11
453.47252272940625
 21
496.85456974485351
  0
ARC
  8
_1-0_
  6
CONTINUOUS
 62
    7
 10
439.46538169353596
 20
503.85456974495037
 40
16
 50
335.44387469289103
 51
58.796966927189523
  0
ARC
  8
_1-0_
  6
CONTINUOUS
 62
    7
 10
453.47252272940625
 20
497.45456974485347
 40
0.6
 50
270
 51
335.44387469289069
  0
LINE
  8
_1-0_
  6
CONTINUOUS
 62
    7
 10
373.79829935379462
 20
499.85456974495048
 11
423.51546006363446
 21
499.85456974495048
  0
LINE
  8
_1-0_
  6
CONTINUOUS
 62
    7
 10
373.79829935379462
 20
509.85456974495048
 11
424.23383548180823
 21
509.85456974495048
  0
LINE
  8
_1-0_
  6
CONTINUOUS
 62
    7
 10
566.9722360686593
 20
520.85456974495037
 11
561.06929234350673
 21
520.85456974495037
  0
ARC
  8
_1-0_
  6
CONTINUOUS
 62
    7
 10
548.172236068659
 20
481.4545697449505
 40
0.6
 50
180
 51
315.00000000001148
  0
LINE
  8
_1-0_
  6
CONTINUOUS
 62
    7
 10
548.59650013737109
 20
481.03030567623853
 11
549.42076420590683
 21
481.85456974477449
  0
LINE
  8
_1-0_
  6
CONTINUOUS
 62
    7
 10
554.97223606865919
 20
481.85456974477449
 11
549.42076420590683
 21
481.85456974477449
  0
ARC
  8
_1-0_
  6
CONTINUOUS
 62
    7
 10
554.97223606865919
 20
482.45456974477452
 40
0.6
 50
270
 51
0
  0
LINE
  8
_1-0_
  6
CONTINUOUS
 62
    7
 10
555.57223606865909
 20
488.35751346992686
 11
555.57223606865909
 21
482.45456974477452
  0
ARC
  8
_1-0_
  6
CONTINUOUS
 62
    7
 10
554.97223606865919
 20
488.35751346992686
 40
0.6
 50
0
 51
44.999999999998039
  0
LINE
  8
_1-0_
  6
CONTINUOUS
 62
    7
 10
555.39650013737105
 20
488.78177753863872
 11
554.74797199994714
 21
489.43030567606263
  0
ARC
  8
_1-0_
  6
CONTINUOUS
 62
    7
 10
555.172236068659
 20
489.85456974477449
 40
0.6
 50
135.00000000000384
 51
224.99999999999619
  0
LINE
  8
_1-0_
  6
CONTINUOUS
 62
    7
 10
555.39650013737105
 20
490.92736195091027
 11
554.74797199994714
 21
490.27883381348636
  0
ARC
  8
_1-0_
  6
CONTINUOUS
 62
    7
 10
554.97223606865896
 20
491.35162601962213
 40
0.6
 50
315.00000000000199
 51
0
  0
ARC
  8
_1-0_
  6
CONTINUOUS
 62
    7
 10
567.57587803411843
 20
500.44403968515877
 40
0.6
 50
156.92006633113297
 51
214.9999999999996
  0
LINE
  8
_1-0_
  6
CONTINUOUS
 62
    7
 10
555.57223606865909
 20
496.47012663798569
 11
555.57223606865909
 21
491.35162601962213
  0
ARC
  8
_1-0_
  6
CONTINUOUS
 62
    7
 10
559.57223606865932
 20
503.85456974495037
 40
8.0999999999999996
 50
336.92006633113311
 51
238.07993366886222
  0
ARC
  8
_1-0_
  6
CONTINUOUS
 62
    7
 10
554.97223606865907
 20
496.47012663798569
 40
0.6
 50
0
 51
58.079933668862189
  0
ARC
  8
_1-0_
  6
CONTINUOUS
 62
    7
 10
561.06929234350673
 20
520.25456974495035
 40
0.6
 50
90
 51
134.99999999999804
  0
LINE
  8
_1-0_
  6
CONTINUOUS
 62
    7
 10
560.64502827479487
 20
520.67883381366232
 11
559.99650013737096
 21
520.03030567623841
  0
ARC
  8
_1-0_
  6
CONTINUOUS
 62
    7
 10
559.57223606865909
 20
520.45456974495039
 40
0.6
 50
225.00000000000384
 51
314.99999999999619
  0
LINE
  8
_1-0_
  6
CONTINUOUS
 62
    7
 10
558.49944386252332
 20
520.67883381366232
 11
559.14797199994723
 21
520.03030567623841
  0
ARC
  8
_1-0_
  6
CONTINUOUS
 62
    7
 10
558.07517979381146
 20
520.25456974495035
 40
0.6
 50
45.000000000001982
 51
90
  0
ARC
  8
_1-0_
  6
CONTINUOUS
 62
    7
 10
543.62231443875771
 20
499.25456974495046
 40
0.6
 50
16.087702538161356
 51
90
  0
ARC
  8
_1-0_
  6
CONTINUOUS
 62
    7
 10
544.34068985693148
 20
510.45456974495045
 40
0.6
 50
270
 51
336.57237349127968
  0
LINE
  8
_1-0_
  6
CONTINUOUS
 62
    7
 10
547.57223606865909
 20
481.4545697449505
 11
547.57223606865909
 21
493.04716487606555
  0
ARC
  8
_1-0_
  6
CONTINUOUS
 62
    7
 10
559.57223606865932
 20
503.85456974495037
 40
16
 50
196.08770253816144
 51
220.62069995133447
  0
ARC
  8
_1-0_
  6
CONTINUOUS
 62
    7
 10
546.97223606865907
 20
493.04716487606555
 40
0.6
 50
0
 51
40.620699951334174
  0
ARC
  8
_1-0_
  6
CONTINUOUS
 62
    7
 10
559.57223606865932
 20
503.85456974495037
 40
16
 50
121.20303307281048
 51
156.57237349128019
  0
ARC
  8
_1-0_
  6
CONTINUOUS
 62
    7
 10
550.9722360686593
 20
518.05316122438944
 40
0.6
 50
301.20303307281097
 51
0
  0
LINE
  8
_1-0_
  6
CONTINUOUS
 62
    7
 10
551.57223606865932
 20
520.25456974495035
 11
551.57223606865932
 21
518.05316122438944
  0
LINE
  8
_1-0_
  6
CONTINUOUS
 62
    7
 10
552.17223606865923
 20
520.85456974495037
 11
558.07517979381146
 21
520.85456974495037
  0
ARC
  8
_1-0_
  6
CONTINUOUS
 62
    7
 10
552.17223606865923
 20
520.25456974495035
 40
0.6
 50
90
 51
180
  0
ARC
  8
_1-0_
  6
CONTINUOUS
 62
    7
 10
566.9722360686593
 20
520.25456974495035
 40
0.6
 50
0
 51
90
  0
LINE
  8
_1-0_
  6
CONTINUOUS
 62
    7
 10
567.57223606865932
 20
520.25456974495035
 11
567.57223606865932
 21
518.05316122438944
  0
ARC
  8
_1-0_
  6
CONTINUOUS
 62
    7
 10
568.17223606865923
 20
518.05316122438944
 40
0.6
 50
180
 51
238.79696692718906
  0
LINE
  8
_1-0_
  6
CONTINUOUS
 62
    7
 10
569.17763619499794
 20
497.11042388304287
 11
567.084386807545
 21
500.09989382334811
  0
ARC
  8
_1-0_
  6
CONTINUOUS
 62
    7
 10
569.66912742157137
 20
497.45456974485347
 40
0.6
 50
214.99999999999903
 51
270
  0
LINE
  8
_1-0_
  6
CONTINUOUS
 62
    7
 10
569.66912742157137
 20
496.85456974485351
 11
573.5793771045295
 21
496.85456974485351
  0
ARC
  8
_1-0_
  6
CONTINUOUS
 62
    7
 10
559.57223606865932
 20
503.85456974495037
 40
16
 50
335.44387469289103
 51
58.796966927189523
  0
ARC
  8
_1-0_
  6
CONTINUOUS
 62
    7
 10
573.5793771045295
 20
497.45456974485347
 40
0.6
 50
270
 51
335.44387469289069
  0
LINE
  8
_1-0_
  6
CONTINUOUS
 62
    7
 10
493.90515372891792
 20
499.85456974495048
 11
543.62231443875771
 21
499.85456974495048
  0
LINE
  8
_1-0_
  6
CONTINUOUS
 62
    7
 10
493.90515372891792
 20
509.85456974495048
 11
544.34068985693148
 21
509.85456974495048
  0
ARC
  8
_1-0_
  6
CONTINUOUS
 62
    7
 10
444.62771209626237
 20
481.79396356984523
 40
0.6
 50
201.80140949
 51
291.80140949000003
  0
ARC
  8
_1-0_
  6
CONTINUOUS
 62
    7
 10
446.89319522042888
 20
506.82569515625607
 40
0.6
 50
156.80140948999977
 51
246.80140948999951
  0
LINE
  8
_1-0_
  6
CONTINUOUS
 62
    7
 10
446.34170820240303
 20
507.06204673536848
 11
446.44037218253004
 21
507.29226268903858
  0
ARC
  8
_1-0_
  6
CONTINUOUS
 62
    7
 10
445.88888516450413
 20
507.52861426815099
 40
0.6
 50
336.80140949000196
 51
29.768215921388862
  0
LINE
  8
_1-0_
  6
CONTINUOUS
 62
    7
 10
446.65684364131653
 20
506.27420813823022
 11
446.88705959498662
 21
506.17554415810321
  0
ARC
  8
_1-0_
  6
CONTINUOUS
 62
    7
 10
446.65070801587422
 20
505.62405714007735
 40
0.6
 50
13.834603058611503
 51
66.801409489997368
  0
LINE
  8
_1-0_
  6
CONTINUOUS
 62
    7
 10
444.0706260817455
 20
481.5711291639974
 11
438.45013360117173
 21
495.62236036283724
  0
ARC
  8
_1-0_
  6
CONTINUOUS
 62
    7
 10
439.46538169353602
 20
503.85456974495031
 40
8
 50
29.76821592138856
 51
259.46538349244048
  0
ARC
  8
_1-0_
  6
CONTINUOUS
 62
    7
 10
437.89304758665475
 20
495.39952595698935
 40
0.6
 50
21.801409490000001
 51
79.46538349244058
  0
LINE
  8
_1-0_
  6
CONTINUOUS
 62
    7
 10
448.5273141973326
 20
491.97006810219602
 11
445.8779471280647
 21
498.59348577414278
  0
ARC
  8
_1-0_
  6
CONTINUOUS
 62
    7
 10
439.46538169353602
 20
503.85456974495031
 40
8
 50
324.13743548755588
 51
13.83460305861149
  0
ARC
  8
_1-0_
  6
CONTINUOUS
 62
    7
 10
446.43503314258169
 20
498.81632017999073
 40
0.6
 50
144.13743548755508
 51
201.80140949
  0
ARC
  8
_1-0_
  6
CONTINUOUS
 62
    7
 10
449.08440021184958
 20
492.19290250804397
 40
0.6
 50
201.80140949
 51
291.80140949000003
  0
LINE
  8
_1-0_
  6
CONTINUOUS
 62
    7
 10
487.89472589507704
 20
425.86252771367231
 11
460.63465024634655
 21
494.01271682291457
  0
ARC
  8
_1-0_
  6
CONTINUOUS
 62
    7
 10
458.77769686462329
 20
493.26993547008817
 40
2
 50
21.801409490000001
 51
111.80140949
  0
LINE
  8
_1-0_
  6
CONTINUOUS
 62
    7
 10
453.80106180205769
 20
484.17086389909571
 11
460.4500481819299
 21
467.54839795248461
  0
ARC
  8
_1-0_
  6
CONTINUOUS
 62
    7
 10
461.00713419644671
 20
467.7712323583325
 40
0.6
 50
201.80140949
 51
246.80140948999801
  0
LINE
  8
_1-0_
  6
CONTINUOUS
 62
    7
 10
460.77078261733442
 20
467.2197453403067
 11
461.61378317993126
 21
466.85845938497158
  0
ARC
  8
_1-0_
  6
CONTINUOUS
 62
    7
 10
461.37743160081891
 20
466.30697236694579
 40
0.6
 50
336.80140949000383
 51
66.801409489996175
  0
LINE
  8
_1-0_
  6
CONTINUOUS
 62
    7
 10
461.56763266350958
 20
465.22762022523659
 11
461.9289186188447
 21
466.07062078783343
  0
ARC
  8
_1-0_
  6
CONTINUOUS
 62
    7
 10
462.11911968153561
 20
464.9912686461243
 40
0.6
 50
156.80140949000176
 51
201.80140949000003
  0
LINE
  8
_1-0_
  6
CONTINUOUS
 62
    7
 10
461.56203366701851
 20
464.76843424027629
 11
472.33454982715296
 21
437.83714384491304
  0
ARC
  8
_1-0_
  6
CONTINUOUS
 62
    7
 10
472.89163584166988
 20
438.05997825076093
 40
0.6
 50
201.80140949
 51
246.80140948999801
  0
LINE
  8
_1-0_
  6
CONTINUOUS
 62
    7
 10
472.65528426255753
 20
437.50849123273514
 11
473.49828482515443
 21
437.14720527740002
  0
ARC
  8
_1-0_
  6
CONTINUOUS
 62
    7
 10
473.26193324604208
 20
436.59571825937417
 40
0.6
 50
336.80140949000383
 51
66.801409489996175
  0
LINE
  8
_1-0_
  6
CONTINUOUS
 62
    7
 10
473.45213430873275
 20
435.51636611766497
 11
473.81342026406787
 21
436.35936668026187
  0
ARC
  8
_1-0_
  6
CONTINUOUS
 62
    7
 10
474.00362132675878
 20
435.28001453855268
 40
0.6
 50
156.80140949000176
 51
201.80140949000003
  0
LINE
  8
_1-0_
  6
CONTINUOUS
 62
    7
 10
478.09001203948242
 20
423.44848831674631
 11
473.44653531224162
 21
435.05718013270473
  0
ARC
  8
_1-0_
  6
CONTINUOUS
 62
    7
 10
479.94696542120568
 20
424.19126966957276
 40
2
 50
201.80140949
 51
291.80140949000003
  0
LINE
  8
_1-0_
  6
CONTINUOUS
 62
    7
 10
487.56047428640812
 20
425.08260729330743
 11
480.68974677403207
 21
422.33431628784956
  0
ARC
  8
_1-0_
  6
CONTINUOUS
 62
    7
 10
487.33763988056018
 20
425.63969330782442
 40
0.6
 50
291.80140948999997
 51
21.801409489999998
  0
LINE
  8
_1-0_
  6
CONTINUOUS
 62
    7
 10
449.30723461769753
 20
491.63581649352699
 11
458.03491551179684
 21
495.12688885181137
  0
ARC
  8
_1-0_
  6
CONTINUOUS
 62
    7
 10
453.24397578754076
 20
483.94802949324776
 40
0.6
 50
21.801409490000001
 51
111.80140949000001
  0
LINE
  8
_1-0_
  6
CONTINUOUS
 62
    7
 10
444.85054650211032
 20
481.23687755532831
 11
447.54586208579747
 21
482.31500378900222
  0
ARC
  8
_1-0_
  6
CONTINUOUS
 62
    7
 10
447.32302767994952
 20
482.8720898035192
 40
0.6
 50
291.80140948999997
 51
336.80140948999804
  0
LINE
  8
_1-0_
  6
CONTINUOUS
 62
    7
 10
447.87451469797531
 20
482.63573822440674
 11
448.23580065331049
 21
483.47873878700358
  0
ARC
  8
_1-0_
  6
CONTINUOUS
 62
    7
 10
448.78728767133629
 20
483.24238720789117
 40
0.6
 50
66.801409490003834
 51
156.80140948999616
  0
LINE
  8
_1-0_
  6
CONTINUOUS
 62
    7
 10
449.86663981304548
 20
483.43258827058196
 11
449.02363925044864
 21
483.79387422591702
  0
ARC
  8
_1-0_
  6
CONTINUOUS
 62
    7
 10
450.10299139215778
 20
483.98407528860787
 40
0.6
 50
246.80140949000179
 51
291.80140949000003
  0
LINE
  8
_1-0_
  6
CONTINUOUS
 62
    7
 10
453.02114138169281
 20
484.50511550776474
 11
450.32582579800572
 21
483.42698927409083
  0
ARC
  8
_1-0_
  6
CONTINUOUS
 62
    7
 10
566.54876815842817
 20
482.2988744418426
 40
0.6
 50
206.56505117700002
 51
296.56505117699999
  0
ARC
  8
_1-0_
  6
CONTINUOUS
 62
    7
 10
566.72765359666266
 20
507.43227850893999
 40
0.6
 50
161.56505117699979
 51
251.56505117699953
  0
LINE
  8
_1-0_
  6
CONTINUOUS
 62
    7
 10
566.15844361783263
 20
507.62201516855083
 11
566.23764839439264
 21
507.85962949822988
  0
ARC
  8
_1-0_
  6
CONTINUOUS
 62
    7
 10
565.6684384155626
 20
508.04936615784072
 40
0.6
 50
341.56505117700192
 51
34.531857608388862
  0
LINE
  8
_1-0_
  6
CONTINUOUS
 62
    7
 10
566.53791693705182
 20
506.86306853010996
 11
566.77553126673081
 21
506.78386375354989
  0
ARC
  8
_1-0_
  6
CONTINUOUS
 62
    7
 10
566.58579460711985
 20
506.21465377471986
 40
0.6
 50
18.598244745611495
 51
71.565051176997358
  0
LINE
  8
_1-0_
  6
CONTINUOUS
 62
    7
 10
566.01211184382782
 20
482.03054628454333
 11
559.2441426665016
 21
495.56648463924193
  0
ARC
  8
_1-0_
  6
CONTINUOUS
 62
    7
 10
559.57223606865841
 20
503.85456974495003
 40
8
 50
34.53185760838852
 51
264.2290251794405
  0
ARC
  8
_1-0_
  6
CONTINUOUS
 62
    7
 10
558.70748635190125
 20
495.29815648194267
 40
0.6
 50
26.565051176999997
 51
84.229025179440569
  0
LINE
  8
_1-0_
  6
CONTINUOUS
 62
    7
 10
569.58982060784217
 20
492.76367257653749
 11
566.39956019450597
 21
499.14419340323161
  0
ARC
  8
_1-0_
  6
CONTINUOUS
 62
    7
 10
559.57223606865841
 20
503.85456974495003
 40
8
 50
328.90107717455589
 51
18.598244745611492
  0
ARC
  8
_1-0_
  6
CONTINUOUS
 62
    7
 10
566.93621650910632
 20
499.41252156053082
 40
0.6
 50
148.90107717455507
 51
206.56505117700002
  0
ARC
  8
_1-0_
  6
CONTINUOUS
 62
    7
 10
570.12647692244241
 20
493.03200073383675
 40
0.6
 50
206.56505117700002
 51
296.56505117699999
  0
LINE
  8
_1-0_
  6
CONTINUOUS
 62
    7
 10
614.31118015775291
 20
430.15376920648259
 11
581.48570224814534
 21
495.80472502592107
  0
ARC
  8
_1-0_
  6
CONTINUOUS
 62
    7
 10
579.69684786614437
 20
494.9102978349236
 40
2
 50
26.565051176999997
 51
116.565051177
  0
LINE
  8
_1-0_
  6
CONTINUOUS
 62
    7
 10
575.49304006843181
 20
485.42936961033018
 11
583.49947990176884
 21
469.41648994360173
  0
ARC
  8
_1-0_
  6
CONTINUOUS
 62
    7
 10
584.03613621636907
 20
469.68481810090094
 40
0.6
 50
206.56505117700002
 51
251.56505117699803
  0
LINE
  8
_1-0_
  6
CONTINUOUS
 62
    7
 10
583.84639955675823
 20
469.11560812207097
 11
584.71649135711846
 21
468.82557752194953
  0
ARC
  8
_1-0_
  6
CONTINUOUS
 62
    7
 10
584.52675469750773
 20
468.25636754311961
 40
0.6
 50
341.56505117700385
 51
71.565051176996178
  0
LINE
  8
_1-0_
  6
CONTINUOUS
 62
    7
 10
584.8059340762162
 20
467.19653908314842
 11
585.09596467633764
 21
468.06663088350871
  0
ARC
  8
_1-0_
  6
CONTINUOUS
 62
    7
 10
585.37514405504635
 20
467.00680242353769
 40
0.6
 50
161.56505117700178
 51
206.56505117700004
  0
LINE
  8
_1-0_
  6
CONTINUOUS
 62
    7
 10
584.838487740446
 20
466.73847426623837
 11
597.81031495772845
 21
440.79481983158496
  0
ARC
  8
_1-0_
  6
CONTINUOUS
 62
    7
 10
598.3469712723288
 20
441.06314798888411
 40
0.6
 50
206.56505117700002
 51
251.56505117699803
  0
LINE
  8
_1-0_
  6
CONTINUOUS
 62
    7
 10
598.15723461271796
 20
440.49393801005419
 11
599.0273264130783
 21
440.20390740993275
  0
ARC
  8
_1-0_
  6
CONTINUOUS
 62
    7
 10
598.83758975346746
 20
439.63469743110278
 40
0.6
 50
341.56505117700385
 51
71.565051176996178
  0
LINE
  8
_1-0_
  6
CONTINUOUS
 62
    7
 10
599.11676913217593
 20
438.57486897113165
 11
599.40679973229737
 21
439.44496077149194
  0
ARC
  8
_1-0_
  6
CONTINUOUS
 62
    7
 10
599.68597911100608
 20
438.38513231152086
 40
0.6
 50
161.56505117700178
 51
206.56505117700004
  0
LINE
  8
_1-0_
  6
CONTINUOUS
 62
    7
 10
604.74080921404948
 20
426.9338313188959
 11
599.14932279640561
 21
438.11680415422154
  0
ARC
  8
_1-0_
  6
CONTINUOUS
 62
    7
 10
606.52966359605057
 20
427.82825850989337
 40
2
 50
206.56505117700002
 51
296.56505117699999
  0
LINE
  8
_1-0_
  6
CONTINUOUS
 62
    7
 10
614.04285200045194
 20
429.34878473458309
 11
607.42409078704804
 21
426.03940412789234
  0
ARC
  8
_1-0_
  6
CONTINUOUS
 62
    7
 10
613.77452384315268
 20
429.88544104918338
 40
0.6
 50
296.56505117699999
 51
26.565051177000004
  0
LINE
  8
_1-0_
  6
CONTINUOUS
 62
    7
 10
570.39480507974167
 20
492.4953444192364
 11
578.80242067514689
 21
496.69915221692463
  0
ARC
  8
_1-0_
  6
CONTINUOUS
 62
    7
 10
574.95638375383157
 20
485.16104145303098
 40
0.6
 50
26.565051176999997
 51
116.565051177
  0
LINE
  8
_1-0_
  6
CONTINUOUS
 62
    7
 10
566.81709631572744
 20
481.76221812724225
 11
569.41356811744822
 21
483.06045402809821
  0
ARC
  8
_1-0_
  6
CONTINUOUS
 62
    7
 10
569.14523996014896
 20
483.59711034269856
 40
0.6
 50
296.56505117699999
 51
341.565051176998
  0
LINE
  8
_1-0_
  6
CONTINUOUS
 62
    7
 10
569.71444993897899
 20
483.4073736830876
 11
570.00448053910031
 21
484.27746548344788
  0
ARC
  8
_1-0_
  6
CONTINUOUS
 62
    7
 10
570.57369051793034
 20
484.08772882383698
 40
0.6
 50
71.565051177003852
 51
161.56505117699615
  0
LINE
  8
_1-0_
  6
CONTINUOUS
 62
    7
 10
571.63351897790153
 20
484.36690820254563
 11
570.76342717754119
 21
484.65693880266696
  0
ARC
  8
_1-0_
  6
CONTINUOUS
 62
    7
 10
571.82325563751226
 20
484.93611818137566
 40
0.6
 50
251.56505117700181
 51
296.56505117700004
  0
LINE
  8
_1-0_
  6
CONTINUOUS
 62
    7
 10
574.68805559653231
 20
485.69769776763127
 11
572.09158379481153
 21
484.39946186677537
  0
ARC
  8
_1-0_
  6
CONTINUOUS
 62
    7
 10
322.53851058378302
 20
481.42227814484937
 40
0.6
 50
196.69924423000001
 51
286.69924422999998
  0
ARC
  8
_1-0_
  6
CONTINUOUS
 62
    7
 10
327.02113760034217
 20
506.15335282894699
 40
0.6
 50
151.69924422999978
 51
241.69924422999949
  0
LINE
  8
_1-0_
  6
CONTINUOUS
 62
    7
 10
326.49285494040868
 20
506.43781272280484
 11
326.61160153571353
 21
506.65834211404842
  0
ARC
  8
_1-0_
  6
CONTINUOUS
 62
    7
 10
326.08331887578004
 20
506.94280200790621
 40
0.6
 50
331.69924423000191
 51
24.666050661388862
  0
LINE
  8
_1-0_
  6
CONTINUOUS
 62
    7
 10
326.73667770648433
 20
505.6250701690135
 11
326.95720709772792
 21
505.5063235737087
  0
ARC
  8
_1-0_
  6
CONTINUOUS
 62
    7
 10
326.67274720387002
 20
504.97804091377526
 40
0.6
 50
8.7324377986114889
 51
61.699244229997348
  0
LINE
  8
_1-0_
  6
CONTINUOUS
 62
    7
 10
321.96381481263842
 20
481.24986941354962
 11
317.61519560292447
 21
495.74526678293364
  0
ARC
  8
_1-0_
  6
CONTINUOUS
 62
    7
 10
319.35852731841271
 20
503.85456974495037
 40
8
 50
24.666050661388567
 51
254.36321823244049
  0
ARC
  8
_1-0_
  6
CONTINUOUS
 62
    7
 10
317.04049983177981
 20
495.57285805163389
 40
0.6
 50
16.699244229999998
 51
74.363218232440573
  0
LINE
  8
_1-0_
  6
CONTINUOUS
 62
    7
 10
327.3276420105712
 20
491.21126277947576
 11
325.27780588485405
 21
498.04404986693004
  0
ARC
  8
_1-0_
  6
CONTINUOUS
 62
    7
 10
319.35852731841271
 20
503.85456974495037
 40
8
 50
319.03527022755588
 51
8.7324377986114889
  0
ARC
  8
_1-0_
  6
CONTINUOUS
 62
    7
 10
325.85250165599871
 20
498.21645859822979
 40
0.6
 50
139.03527022755509
 51
196.69924423000001
  0
ARC
  8
_1-0_
  6
CONTINUOUS
 62
    7
 10
327.90233778171591
 20
491.38367151077546
 40
0.6
 50
196.69924423000001
 51
286.69924422999998
  0
LINE
  8
_1-0_
  6
CONTINUOUS
 62
    7
 10
360.65999673143392
 20
421.86463972714114
 11
339.56866193576451
 21
492.16908906384373
  0
ARC
  8
_1-0_
  6
CONTINUOUS
 62
    7
 10
337.65300936528217
 20
491.59439329284453
 40
2
 50
16.699244229999998
 51
106.69924422999999
  0
LINE
  8
_1-0_
  6
CONTINUOUS
 62
    7
 10
331.88689512764995
 20
482.97395672625606
 11
337.03126815129053
 21
465.82604664311151
  0
ARC
  8
_1-0_
  6
CONTINUOUS
 62
    7
 10
337.60596392243508
 20
465.99845537441126
 40
0.6
 50
196.69924423000001
 51
241.69924422999802
  0
LINE
  8
_1-0_
  6
CONTINUOUS
 62
    7
 10
337.32150402857735
 20
465.47017271447783
 11
338.12903451429622
 21
465.03534860671044
  0
ARC
  8
_1-0_
  6
CONTINUOUS
 62
    7
 10
337.84457462043838
 20
464.50706594677706
 40
0.6
 50
331.69924423000384
 51
61.699244229996168
  0
LINE
  8
_1-0_
  6
CONTINUOUS
 62
    7
 10
337.93803317260438
 20
463.4150755672004
 11
338.37285728037182
 21
464.22260605291928
  0
ARC
  8
_1-0_
  6
CONTINUOUS
 62
    7
 10
338.46631583253804
 20
463.13061567334267
 40
0.6
 50
151.69924423000177
 51
196.69924423000003
  0
LINE
  8
_1-0_
  6
CONTINUOUS
 62
    7
 10
337.89162006139321
 20
462.95820694204292
 11
346.22640048727715
 21
435.17560551539373
  0
ARC
  8
_1-0_
  6
CONTINUOUS
 62
    7
 10
346.80109625842181
 20
435.34801424669348
 40
0.6
 50
196.69924423000001
 51
241.69924422999802
  0
LINE
  8
_1-0_
  6
CONTINUOUS
 62
    7
 10
346.51663636456396
 20
434.8197315867601
 11
347.32416685028284
 21
434.38490747899266
  0
ARC
  8
_1-0_
  6
CONTINUOUS
 62
    7
 10
347.03970695642511
 20
433.85662481905928
 40
0.6
 50
331.69924423000384
 51
61.699244229996168
  0
LINE
  8
_1-0_
  6
CONTINUOUS
 62
    7
 10
347.13316550859111
 20
432.76463443948262
 11
347.56798961635843
 21
433.57216492520149
  0
ARC
  8
_1-0_
  6
CONTINUOUS
 62
    7
 10
347.66144816852471
 20
432.48017454562489
 40
0.6
 50
151.69924423000177
 51
196.69924423000003
  0
LINE
  8
_1-0_
  6
CONTINUOUS
 62
    7
 10
350.67944683932268
 20
420.33211767148293
 11
347.08675239737988
 21
432.30776581432514
  0
ARC
  8
_1-0_
  6
CONTINUOUS
 62
    7
 10
352.59509940980502
 20
420.90681344248208
 40
2
 50
196.69924423000001
 51
286.69924422999998
  0
LINE
  8
_1-0_
  6
CONTINUOUS
 62
    7
 10
360.25770969158901
 20
421.11753522469667
 11
353.16979518080416
 21
418.99116087199974
  0
ARC
  8
_1-0_
  6
CONTINUOUS
 62
    7
 10
360.08530096028926
 20
421.69223099584138
 40
0.6
 50
286.69924422999998
 51
16.699244229999998
  0
LINE
  8
_1-0_
  6
CONTINUOUS
 62
    7
 10
328.07474651301561
 20
490.8089757396308
 11
337.07831359428297
 21
493.51004586332692
  0
ARC
  8
_1-0_
  6
CONTINUOUS
 62
    7
 10
331.31219935650523
 20
482.80154799495631
 40
0.6
 50
16.699244229999998
 51
106.69924423000001
  0
LINE
  8
_1-0_
  6
CONTINUOUS
 62
    7
 10
322.71091931508278
 20
480.84758237370465
 11
325.49143511960983
 21
481.6817371148515
  0
ARC
  8
_1-0_
  6
CONTINUOUS
 62
    7
 10
325.31902638831014
 20
482.25643288599622
 40
0.6
 50
286.69924422999998
 51
331.69924422999799
  0
LINE
  8
_1-0_
  6
CONTINUOUS
 62
    7
 10
325.84730904824357
 20
481.97197299213832
 11
326.2821331560109
 21
482.77950347785713
  0
ARC
  8
_1-0_
  6
CONTINUOUS
 62
    7
 10
326.81041581594434
 20
482.49504358399929
 40
0.6
 50
61.699244230003842
 51
151.69924422999617
  0
LINE
  8
_1-0_
  6
CONTINUOUS
 62
    7
 10
327.902406195521
 20
482.5885021361654
 11
327.09487570980212
 21
483.02332624393273
  0
ARC
  8
_1-0_
  6
CONTINUOUS
 62
    7
 10
328.18686608937873
 20
483.11678479609895
 40
0.6
 50
241.6992442300018
 51
286.69924423000003
  0
LINE
  8
_1-0_
  6
CONTINUOUS
 62
    7
 10
331.13979062520548
 20
483.37624376610108
 11
328.35927482067848
 21
482.54208902495418
  0
LINE
  8
_1-0_
  6
CONTINUOUS
 62
    7
 10
326.75852731841269
 20
520.85456974495037
 11
320.85558359326012
 21
520.85456974495037
  0
ARC
  8
_1-0_
  6
CONTINUOUS
 62
    7
 10
307.95852731841239
 20
481.4545697449505
 40
0.6
 50
180
 51
315.00000000001148
  0
LINE
  8
_1-0_
  6
CONTINUOUS
 62
    7
 10
308.38279138712448
 20
481.03030567623853
 11
309.20705545566022
 21
481.85456974477449
  0
LINE
  8
_1-0_
  6
CONTINUOUS
 62
    7
 10
314.75852731841258
 20
481.85456974477449
 11
309.20705545566022
 21
481.85456974477449
  0
ARC
  8
_1-0_
  6
CONTINUOUS
 62
    7
 10
314.75852731841258
 20
482.45456974477452
 40
0.6
 50
270
 51
0
  0
LINE
  8
_1-0_
  6
CONTINUOUS
 62
    7
 10
315.35852731841248
 20
488.35751346992686
 11
315.35852731841248
 21
482.45456974477452
  0
ARC
  8
_1-0_
  6
CONTINUOUS
 62
    7
 10
314.75852731841258
 20
488.35751346992686
 40
0.6
 50
0
 51
44.999999999998039
  0
LINE
  8
_1-0_
  6
CONTINUOUS
 62
    7
 10
315.18279138712444
 20
488.78177753863872
 11
314.53426324970053
 21
489.43030567606263
  0
ARC
  8
_1-0_
  6
CONTINUOUS
 62
    7
 10
314.95852731841239
 20
489.85456974477449
 40
0.6
 50
135.00000000000384
 51
224.99999999999619
  0
LINE
  8
_1-0_
  6
CONTINUOUS
 62
    7
 10
315.18279138712444
 20
490.92736195091027
 11
314.53426324970053
 21
490.27883381348636
  0
ARC
  8
_1-0_
  6
CONTINUOUS
 62
    7
 10
314.75852731841235
 20
491.35162601962213
 40
0.6
 50
315.00000000000199
 51
0
  0
ARC
  8
_1-0_
  6
CONTINUOUS
 62
    7
 10
327.36216928387182
 20
500.44403968515877
 40
0.6
 50
156.92006633113297
 51
214.9999999999996
  0
LINE
  8
_1-0_
  6
CONTINUOUS
 62
    7
 10
315.35852731841248
 20
496.47012663798569
 11
315.35852731841248
 21
491.35162601962213
  0
ARC
  8
_1-0_
  6
CONTINUOUS
 62
    7
 10
319.35852731841271
 20
503.85456974495037
 40
8.0999999999999996
 50
336.92006633113311
 51
238.07993366886222
  0
ARC
  8
_1-0_
  6
CONTINUOUS
 62
    7
 10
314.75852731841246
 20
496.47012663798569
 40
0.6
 50
0
 51
58.079933668862189
  0
ARC
  8
_1-0_
  6
CONTINUOUS
 62
    7
 10
320.85558359326012
 20
520.25456974495035
 40
0.6
 50
90
 51
134.99999999999804
  0
LINE
  8
_1-0_
  6
CONTINUOUS
 62
    7
 10
320.43131952454826
 20
520.67883381366232
 11
319.78279138712435
 21
520.03030567623841
  0
ARC
  8
_1-0_
  6
CONTINUOUS
 62
    7
 10
319.35852731841248
 20
520.45456974495039
 40
0.6
 50
225.00000000000384
 51
314.99999999999619
  0
LINE
  8
_1-0_
  6
CONTINUOUS
 62
    7
 10
318.28573511227671
 20
520.67883381366232
 11
318.93426324970062
 21
520.03030567623841
  0
ARC
  8
_1-0_
  6
CONTINUOUS
 62
    7
 10
317.86147104356485
 20
520.25456974495035
 40
0.6
 50
45.000000000001982
 51
90
  0
ARC
  8
_1-0_
  6
CONTINUOUS
 62
    7
 10
303.40860568851116
 20
499.25456974495046
 40
0.6
 50
16.087702538161356
 51
90
  0
ARC
  8
_1-0_
  6
CONTINUOUS
 62
    7
 10
304.12698110668498
 20
510.45456974495045
 40
0.6
 50
270
 51
336.57237349127968
  0
LINE
  8
_1-0_
  6
CONTINUOUS
 62
    7
 10
307.35852731841248
 20
481.4545697449505
 11
307.35852731841248
 21
493.04716487606555
  0
ARC
  8
_1-0_
  6
CONTINUOUS
 62
    7
 10
319.35852731841271
 20
503.85456974495037
 40
16
 50
196.08770253816144
 51
220.62069995133447
  0
ARC
  8
_1-0_
  6
CONTINUOUS
 62
    7
 10
306.75852731841246
 20
493.04716487606555
 40
0.6
 50
0
 51
40.620699951334174
  0
ARC
  8
_1-0_
  6
CONTINUOUS
 62
    7
 10
319.35852731841271
 20
503.85456974495037
 40
16
 50
121.20303307281048
 51
156.57237349128019
  0
ARC
  8
_1-0_
  6
CONTINUOUS
 62
    7
 10
310.75852731841269
 20
518.05316122438944
 40
0.6
 50
301.20303307281097
 51
0
  0
LINE
  8
_1-0_
  6
CONTINUOUS
 62
    7
 10
311.35852731841271
 20
520.25456974495035
 11
311.35852731841271
 21
518.05316122438944
  0
LINE
  8
_1-0_
  6
CONTINUOUS
 62
    7
 10
311.95852731841273
 20
520.85456974495037
 11
317.86147104356485
 21
520.85456974495037
  0
ARC
  8
_1-0_
  6
CONTINUOUS
 62
    7
 10
311.95852731841273
 20
520.25456974495035
 40
0.6
 50
90
 51
180
  0
ARC
  8
_1-0_
  6
CONTINUOUS
 62
    7
 10
326.75852731841269
 20
520.25456974495035
 40
0.6
 50
0
 51
90
  0
LINE
  8
_1-0_
  6
CONTINUOUS
 62
    7
 10
327.35852731841271
 20
520.25456974495035
 11
327.35852731841271
 21
518.05316122438944
  0
ARC
  8
_1-0_
  6
CONTINUOUS
 62
    7
 10
327.95852731841268
 20
518.05316122438944
 40
0.6
 50
180
 51
238.79696692718906
  0
LINE
  8
_1-0_
  6
CONTINUOUS
 62
    7
 10
328.96392744475145
 20
497.11042388304287
 11
326.87067805729839
 21
500.09989382334811
  0
ARC
  8
_1-0_
  6
CONTINUOUS
 62
    7
 10
329.45541867132482
 20
497.45456974485347
 40
0.6
 50
214.99999999999903
 51
270
  0
LINE
  8
_1-0_
  6
CONTINUOUS
 62
    7
 10
329.45541867132482
 20
496.85456974485351
 11
333.36566835428295
 21
496.85456974485351
  0
ARC
  8
_1-0_
  6
CONTINUOUS
 62
    7
 10
319.35852731841271
 20
503.85456974495037
 40
16
 50
335.44387469289103
 51
58.796966927189523
  0
ARC
  8
_1-0_
  6
CONTINUOUS
 62
    7
 10
333.36566835428295
 20
497.45456974485347
 40
0.6
 50
270
 51
335.44387469289069
  0
LINE
  8
_1-0_
  6
CONTINUOUS
 62
    7
 10
253.69144497867134
 20
499.85456974495048
 11
303.40860568851116
 21
499.85456974495048
  0
LINE
  8
_1-0_
  6
CONTINUOUS
 62
    7
 10
253.69144497867134
 20
509.85456974495048
 11
304.12698110668498
 21
509.85456974495048
  0
LINE
  8
_1-0_
  6
DASHED1
 62
    4
 10
306.12977076282164
 20
494.85456974534446
 11
315.35852731841248
 21
494.85456974526585
  0
LINE
  8
_1-0_
  6
DASHED1
 62
    4
 10
307.35852731840453
 20
484.85456974533463
 11
315.35852731841248
 21
484.85456974526579
  0
LINE
  8
_1-0_
  6
CENTER1
 62
    4
 10
299.87710132941913
 20
503.85456974495037
 11
338.15258272279789
 21
503.85456974495037
  0
LINE
  8
_1-0_
  6
CENTER1
 62
    4
 10
419.98395570454238
 20
503.85456974495037
 11
458.25943709792119
 21
503.85456974495037
  0
LINE
  8
_1-0_
  6
CENTER1
 62
    4
 10
540.09081007966563
 20
503.85456974495037
 11
578.36629147304438
 21
503.85456974495037
  0
LINE
  8
_1-0_
  6
DASHED1
 62
    4
 10
547.57223606865114
 20
484.85456974533463
 11
555.57223606865898
 21
484.85456974526579
  0
LINE
  8
_1-0_
  6
CONTINUOUS
 62
    4
 10
559.57223606865932
 20
476.92277413257705
 11
559.57223606865932
 21
450.55615914752809
  0
LINE
  8
_1-0_
  6
CENTER1
 62
    4
 10
319.35852731841271
 20
503.85456974495037
 11
326.68272531368586
 21
479.44057642737334
  0
LINE
  8
_1-0_
  6
CONTINUOUS
 62
    4
 10
439.4653816935367
 20
476.92277413257705
 11
439.4653816935367
 21
450.55615914752809
  0
LINE
  8
_1-0_
  6
CONTINUOUS
 62
    4
 10
319.35852731841339
 20
476.92277413257705
 11
319.35852731841339
 21
450.55615914752809
  0
LINE
  8
_1-0_
  6
CONTINUOUS
 62
    4
 10
327.25742108481853
 20
477.52492385693108
 11
334.6737129076289
 21
452.80395111422968
  0
LINE
  8
_1-0_
  6
CONTINUOUS
 62
    4
 10
278.06240471411957
 20
484.85456974517513
 11
307.35852731841271
 21
484.85456974490535
  0
LINE
  8
_1-0_
  6
CONTINUOUS
 62
    4
 10
315.35852731841248
 20
484.85456974526579
 11
317.4624047141063
 21
484.85456974526579
  0
LINE
  8
_1-0_
  6
CONTINUOUS
 62
    4
 10
315.35852731841248
 20
494.85456974526585
 11
317.46240471411647
 21
494.85456974526585
  0
LINE
  8
_1-0_
  6
CENTER1
 62
    4
 10
439.46538169353602
 20
503.85456974495037
 11
448.895504141088
 21
480.27926362607036
  0
LINE
  8
_1-0_
  6
CONTINUOUS
 62
    4
 10
449.63828549379622
 20
478.42231024429987
 11
459.25991445391139
 21
454.36823784401184
  0
LINE
  8
_1-0_
  6
CONTINUOUS
 62
    4
 10
278.06240471411957
 20
494.85456974517513
 11
306.12977076311245
 21
494.85456974491694
  0
LINE
  8
_1-0_
  6
DASHED1
 62
    4
 10
546.34347951306813
 20
494.85456974534446
 11
555.57223606865898
 21
494.85456974526585
  0
LINE
  8
_1-0_
  6
CONTINUOUS
 62
    4
 10
398.99724984830459
 20
494.85456974516751
 11
426.23662513823575
 21
494.85456974491694
  0
LINE
  8
_1-0_
  6
CONTINUOUS
 62
    4
 10
398.99724984830459
 20
484.85456974516745
 11
427.46538169353602
 21
484.85456974490535
  0
LINE
  8
_1-0_
  6
DASHED1
 62
    4
 10
427.46538169352783
 20
484.85456974533463
 11
435.46538169353573
 21
484.85456974526579
  0
LINE
  8
_1-0_
  6
DASHED1
 62
    4
 10
426.23662513794488
 20
494.85456974534446
 11
435.46538169353573
 21
494.85456974526585
  0
LINE
  8
_1-0_
  6
CONTINUOUS
 62
    4
 10
435.46538169353573
 20
494.85456974526585
 11
438.39724984830144
 21
494.85456974526585
  0
LINE
  8
_1-0_
  6
CONTINUOUS
 62
    4
 10
435.46538169353573
 20
484.85456974526579
 11
438.39724984829127
 21
484.85456974526579
  0
LINE
  8
_1-0_
  6
CENTER1
 62
    4
 10
559.57223606865932
 20
503.8545697449494
 11
571.17355891358625
 21
480.65192405509532
  0
LINE
  8
_1-0_
  6
CONTINUOUS
 62
    4
 10
572.06798610458623
 20
478.86306967309548
 11
583.40800990636512
 21
456.18302206953769
  0
LINE
  8
_1-0_
  6
CONTINUOUS
 62
    4
 10
519.90010011349545
 20
484.85456974514625
 11
547.57223606865932
 21
484.85456974490535
  0
LINE
  8
_1-0_
  6
CONTINUOUS
 62
    4
 10
555.57223606865898
 20
484.85456974526579
 11
559.30010011348213
 21
484.85456974526579
  0
LINE
  8
_1-0_
  6
CONTINUOUS
 62
    4
 10
555.57223606865898
 20
494.85456974526585
 11
559.30010011349225
 21
494.85456974526585
  0
LINE
  8
_1-0_
  6
CONTINUOUS
 62
    4
 10
519.90010011349545
 20
494.85456974514631
 11
546.34347951335906
 21
494.85456974491694
  0
TEXT
  8
_1-9__
 62
    3
 10
337.7953353272448
 20
453.98728568235884
 40
10
 41
0.8
 50
-171.65037788300282
  1
16.7ﾟ
  0
ARC
  8
_1-9__
  6
CONTINUOUS
 62
    4
 10
319.35852731841271
 20
503.85456974495037
 40
51.015977442836991
 50
270.00000000000068
 51
286.69924423399362
  0
POINT
  8
_1-9__
 62
    4
 10
319.35852731841339
 20
452.8385923021134
  0
POINT
  8
_1-9__
 62
    4
 10
334.01786056671233
 20
454.99012558395179
  0
TEXT
  8
_1-9__
 62
    3
 10
460.16626707852367
 20
454.53148329223984
 40
10
 41
0.8
 50
-169.09929525682375
  1
21.8ﾟ
  0
ARC
  8
_1-9__
  6
CONTINUOUS
 62
    4
 10
439.46538169353602
 20
503.85456974495037
 40
51.347812876413045
 50
270.0000000000008
 51
291.80140948635182
  0
POINT
  8
_1-9__
 62
    4
 10
439.4653816935367
 20
452.50675686853731
  0
POINT
  8
_1-9__
 62
    4
 10
458.53548064701101
 20
456.17932236126285
  0
TEXT
  8
_1-9__
 62
    3
 10
582.21929381345569
 20
455.79761343625063
 40
10
 41
0.8
 50
-166.7174744114613
  1
26.6ﾟ
  0
ARC
  8
_1-9__
  6
CONTINUOUS
 62
    4
 10
559.57223606865932
 20
503.85456974495037
 40
50.97461182300858
 50
270
 51
296.56505117707746
  0
POINT
  8
_1-9__
 62
    4
 10
559.57223606865932
 20
452.87995792194181
  0
POINT
  8
_1-9__
 62
    4
 10
582.3687755012412
 20
458.26149087978547
  0
LINE
  8
_0-1_
  6
PHANTOM2
 62
    5
 10
180.34278863959821
 20
154.295889099101
 11
172.16410871412165
 21
162.47456790122399
  0
LINE
  8
_0-1_
  6
PHANTOM2
 62
    5
 10
218.60725627328844
 20
177.31771464935784
 11
230.10725615558869
 21
188.817714531658
  0
LINE
  8
_0-1_
  6
PHANTOM2
 62
    5
 10
230.10725615558869
 20
190.17456890135094
 11
230.10725615558869
 21
188.817714531658
  0
ARC
  8
_0-1_
  6
PHANTOM2
 62
    5
 10
227.87832408759698
 20
185.17456890129324
 40
5
 50
90
 51
134.99999999999991
  0
LINE
  8
_0-1_
  6
PHANTOM2
 62
    5
 10
224.34279018166427
 20
188.71010280722601
 11
214.60725627328844
 21
178.97456889885021
  0
LINE
  8
_0-1_
  6
PHANTOM2
 62
    5
 10
218.60725627328844
 20
177.31771464935784
 11
218.60725627328844
 21
174.2314231485426
  0
LINE
  8
_0-1_
  6
PHANTOM2
 62
    5
 10
224.26791744289454
 20
162.91390772944419
 11
214.60725627328844
 21
172.57456889905021
  0
LINE
  8
_0-1_
  6
PHANTOM2
 62
    5
 10
218.60725627328844
 20
174.2314231485426
 11
226.36411152060708
 21
166.47456790122399
  0
LINE
  8
_0-1_
  6
PHANTOM2
 62
    5
 10
214.60725627328844
 20
178.97456889885021
 11
214.60725627328844
 21
172.57456889905021
  0
LINE
  8
_0-1_
  6
CONTINUOUS
 62
    7
 10
352.10725527338684
 20
162.47456790122399
 11
347.80725685434879
 21
162.47456790122399
  0
LINE
  8
_0-1_
  6
CONTINUOUS
 62
    7
 10
351.86461427339088
 20
166.47456790122399
 11
346.1504022733867
 21
166.47456790122399
  0
LINE
  8
_0-1_
  6
CONTINUOUS
 62
    7
 10
339.62857687940857
 20
154.29588909342266
 11
347.80725685434879
 21
162.47456790122399
  0
LINE
  8
_0-1_
  6
CONTINUOUS
 62
    7
 10
334.50725638448728
 20
152.17456890122457
 11
339.62857687940857
 21
154.29588909342266
  0
LINE
  8
_0-1_
  6
CONTINUOUS
 62
    7
 10
200.58593563969646
 20
154.295889099101
 11
192.4072557142199
 21
162.47456790122399
  0
LINE
  8
_0-1_
  6
CONTINUOUS
 62
    7
 10
191.10725615558806
 20
190.17456890135094
 11
191.10725615558806
 21
188.817714531658
  0
LINE
  8
_0-1_
  6
CONTINUOUS
 62
    7
 10
179.60725627328782
 20
177.31771464935784
 11
191.10725615558806
 21
188.817714531658
  0
LINE
  8
_0-1_
  6
CONTINUOUS
 62
    7
 10
188.87832408759635
 20
190.17456890129324
 11
191.10725615558806
 21
190.17456890129324
  0
LINE
  8
_0-1_
  6
CONTINUOUS
 62
    7
 10
185.34279018166364
 20
188.71010280722601
 11
175.60725627328782
 21
178.97456889885021
  0
ARC
  8
_0-1_
  6
CONTINUOUS
 62
    7
 10
188.87832408759635
 20
185.17456890129324
 40
5
 50
90
 51
134.99999999999991
  0
ARC
  8
_0-1_
  6
CONTINUOUS
 62
    7
 10
360.60725627328782
 20
174.17456890128128
 40
1
 50
0
 51
90
  0
LINE
  8
_0-1_
  6
CONTINUOUS
 62
    7
 10
360.60725627328782
 20
175.17456890128128
 11
358.60725627328782
 21
175.17456890128128
  0
LINE
  8
_0-1_
  6
CONTINUOUS
 62
    7
 10
358.60725627328782
 20
173.2172099011259
 11
358.60725627328782
 21
175.17456890128128
  0
LINE
  8
_0-1_
  6
CONTINUOUS
 62
    7
 10
351.86461427339088
 20
166.47456790122399
 11
358.60725627328782
 21
173.2172099011259
  0
LINE
  8
_0-1_
  6
CONTINUOUS
 62
    7
 10
361.60725627328782
 20
174.17456890128128
 11
361.60725627328782
 21
171.97456890112545
  0
LINE
  8
_0-1_
  6
CONTINUOUS
 62
    7
 10
361.60725627328782
 20
171.97456890112545
 11
352.10725527338684
 21
162.47456790122399
  0
LINE
  8
_0-1_
  6
CONTINUOUS
 62
    7
 10
185.26791744289392
 20
162.91390772944419
 11
175.60725627328782
 21
172.57456889905021
  0
LINE
  8
_0-1_
  6
CONTINUOUS
 62
    7
 10
175.60725627328782
 20
178.97456889885021
 11
175.60725627328782
 21
172.57456889905021
  0
LINE
  8
_0-1_
  6
CONTINUOUS
 62
    7
 10
179.60725627328782
 20
177.31771464935784
 11
179.60725627328782
 21
174.2314231485426
  0
LINE
  8
_0-1_
  6
CONTINUOUS
 62
    7
 10
179.60725627328782
 20
174.2314231485426
 11
187.36411152060646
 21
166.47456790122399
  0
LINE
  8
_0-1_
  6
CONTINUOUS
 62
    7
 10
195.4783234622904
 20
166.47456790122399
 11
187.36411152060646
 21
166.47456790122399
  0
ARC
  8
_0-1_
  6
CONTINUOUS
 62
    7
 10
186.32857761467369
 20
163.97456790122399
 40
1.5
 50
225
 51
270
  0
LINE
  8
_0-1_
  6
CONTINUOUS
 62
    7
 10
186.32857761467369
 20
162.47456790122399
 11
192.4072557142199
 21
162.47456790122399
  0
LINE
  8
_0-1_
  6
CONTINUOUS
 62
    7
 10
229.10714527338575
 20
157.17456890122412
 11
228.60714527338575
 21
159.17456890122412
  0
LINE
  8
_0-1_
  6
CONTINUOUS
 62
    7
 10
226.10714527338575
 20
157.17456890122412
 11
225.60714527338575
 21
159.17456890122412
  0
LINE
  8
_0-1_
  6
CONTINUOUS
 62
    7
 10
226.10714527338575
 20
157.17456890122412
 11
227.10714527338575
 21
157.17456890122412
  0
LINE
  8
_0-1_
  6
CONTINUOUS
 62
    7
 10
227.10714527338575
 20
157.17456890122412
 11
227.60714527338575
 21
159.17456890122412
  0
LINE
  8
_0-1_
  6
CONTINUOUS
 62
    7
 10
223.10714527338575
 20
157.17456890122412
 11
222.60714527338575
 21
159.17456890122412
  0
LINE
  8
_0-1_
  6
CONTINUOUS
 62
    7
 10
223.10714527338575
 20
157.17456890122412
 11
224.10714527338575
 21
157.17456890122412
  0
LINE
  8
_0-1_
  6
CONTINUOUS
 62
    7
 10
224.10714527338575
 20
157.17456890122412
 11
224.60714527338575
 21
159.17456890122412
  0
LINE
  8
_0-1_
  6
CONTINUOUS
 62
    7
 10
220.10714527338575
 20
157.17456890122412
 11
219.60714527338575
 21
159.17456890122412
  0
LINE
  8
_0-1_
  6
CONTINUOUS
 62
    7
 10
220.10714527338575
 20
157.17456890122412
 11
221.10714527338575
 21
157.17456890122412
  0
LINE
  8
_0-1_
  6
CONTINUOUS
 62
    7
 10
221.10714527338575
 20
157.17456890122412
 11
221.60714527338575
 21
159.17456890122412
  0
LINE
  8
_0-1_
  6
CONTINUOUS
 62
    7
 10
217.10714527338575
 20
157.17456890122412
 11
216.60714527338575
 21
159.17456890122412
  0
LINE
  8
_0-1_
  6
CONTINUOUS
 62
    7
 10
217.10714527338575
 20
157.17456890122412
 11
218.10714527338575
 21
157.17456890122412
  0
LINE
  8
_0-1_
  6
CONTINUOUS
 62
    7
 10
218.10714527338575
 20
157.17456890122412
 11
218.60714527338575
 21
159.17456890122412
  0
LINE
  8
_0-1_
  6
CONTINUOUS
 62
    7
 10
214.10714527338575
 20
157.17456890122412
 11
213.60714527338575
 21
159.17456890122412
  0
LINE
  8
_0-1_
  6
CONTINUOUS
 62
    7
 10
214.10714527338575
 20
157.17456890122412
 11
215.10714527338575
 21
157.17456890122412
  0
LINE
  8
_0-1_
  6
CONTINUOUS
 62
    7
 10
215.10714527338575
 20
157.17456890122412
 11
215.60714527338575
 21
159.17456890122412
  0
LINE
  8
_0-1_
  6
CONTINUOUS
 62
    7
 10
211.10714527338575
 20
157.17456890122412
 11
210.60714527338575
 21
159.17456890122412
  0
LINE
  8
_0-1_
  6
CONTINUOUS
 62
    7
 10
211.10714527338575
 20
157.17456890122412
 11
212.10714527338575
 21
157.17456890122412
  0
LINE
  8
_0-1_
  6
CONTINUOUS
 62
    7
 10
212.10714527338575
 20
157.17456890122412
 11
212.60714527338575
 21
159.17456890122412
  0
LINE
  8
_0-1_
  6
CONTINUOUS
 62
    7
 10
208.10714527338575
 20
157.17456890122412
 11
209.10714527338575
 21
157.17456890122412
  0
LINE
  8
_0-1_
  6
CONTINUOUS
 62
    7
 10
209.10714527338575
 20
157.17456890122412
 11
209.60714527338575
 21
159.17456890122412
  0
LINE
  8
_0-1_
  6
CONTINUOUS
 62
    7
 10
205.10714527338575
 20
157.17456890122412
 11
206.10714527338575
 21
157.17456890122412
  0
LINE
  8
_0-1_
  6
CONTINUOUS
 62
    7
 10
205.10714527338575
 20
157.17456890122412
 11
204.60714527338575
 21
159.17456890122412
  0
LINE
  8
_0-1_
  6
CONTINUOUS
 62
    7
 10
202.77832346495563
 20
159.17456890122412
 11
204.60714527338575
 21
159.17456890122412
  0
LINE
  8
_0-1_
  6
CONTINUOUS
 62
    7
 10
202.77832346495563
 20
159.17456890122412
 11
195.4783234622904
 21
166.47456790122399
  0
LINE
  8
_0-1_
  6
CONTINUOUS
 62
    7
 10
206.10714527338575
 20
157.17456890122412
 11
206.60714527338575
 21
159.17456890122412
  0
LINE
  8
_0-1_
  6
CONTINUOUS
 62
    7
 10
206.60714527338575
 20
159.17456890122412
 11
207.60714527338575
 21
159.17456890122412
  0
LINE
  8
_0-1_
  6
CONTINUOUS
 62
    7
 10
208.10714527338575
 20
157.17456890122412
 11
207.60714527338575
 21
159.17456890122412
  0
LINE
  8
_0-1_
  6
CONTINUOUS
 62
    7
 10
209.60714527338575
 20
159.17456890122412
 11
210.60714527338575
 21
159.17456890122412
  0
LINE
  8
_0-1_
  6
CONTINUOUS
 62
    7
 10
212.60714527338575
 20
159.17456890122412
 11
213.60714527338575
 21
159.17456890122412
  0
LINE
  8
_0-1_
  6
CONTINUOUS
 62
    7
 10
215.60714527338575
 20
159.17456890122412
 11
216.60714527338575
 21
159.17456890122412
  0
LINE
  8
_0-1_
  6
CONTINUOUS
 62
    7
 10
218.60714527338575
 20
159.17456890122412
 11
219.60714527338575
 21
159.17456890122412
  0
LINE
  8
_0-1_
  6
CONTINUOUS
 62
    7
 10
221.60714527338575
 20
159.17456890122412
 11
222.60714527338575
 21
159.17456890122412
  0
LINE
  8
_0-1_
  6
CONTINUOUS
 62
    7
 10
224.60714527338575
 20
159.17456890122412
 11
225.60714527338575
 21
159.17456890122412
  0
LINE
  8
_0-1_
  6
CONTINUOUS
 62
    7
 10
227.60714527338575
 20
159.17456890122412
 11
228.60714527338575
 21
159.17456890122412
  0
LINE
  8
_0-1_
  6
CONTINUOUS
 62
    7
 10
329.10714527338575
 20
157.17456890122412
 11
329.60714527338575
 21
159.17456890122412
  0
LINE
  8
_0-1_
  6
CONTINUOUS
 62
    7
 10
331.10714527338575
 20
157.17456890122412
 11
330.60714527338575
 21
159.17456890122412
  0
LINE
  8
_0-1_
  6
CONTINUOUS
 62
    7
 10
331.10714527338575
 20
157.17456890122412
 11
332.10714527338575
 21
157.17456890122412
  0
LINE
  8
_0-1_
  6
CONTINUOUS
 62
    7
 10
332.10714527338575
 20
157.17456890122412
 11
332.60714527338575
 21
159.17456890122412
  0
LINE
  8
_0-1_
  6
CONTINUOUS
 62
    7
 10
329.60714527338575
 20
159.17456890122412
 11
330.60714527338575
 21
159.17456890122412
  0
LINE
  8
_0-1_
  6
CONTINUOUS
 62
    7
 10
334.10714527338575
 20
157.17456890122412
 11
333.60714527338575
 21
159.17456890122412
  0
LINE
  8
_0-1_
  6
CONTINUOUS
 62
    7
 10
334.10714527338575
 20
157.17456890122412
 11
335.10714527338575
 21
157.17456890122412
  0
LINE
  8
_0-1_
  6
CONTINUOUS
 62
    7
 10
335.10714527338575
 20
157.17456890122412
 11
335.60714527338575
 21
159.17456890122412
  0
LINE
  8
_0-1_
  6
CONTINUOUS
 62
    7
 10
332.60714527338575
 20
159.17456890122412
 11
333.60714527338575
 21
159.17456890122412
  0
LINE
  8
_0-1_
  6
CONTINUOUS
 62
    7
 10
335.60714527338575
 20
159.17456890122412
 11
338.85040327338641
 21
159.17456890122412
  0
LINE
  8
_0-1_
  6
CONTINUOUS
 62
    7
 10
346.1504022733867
 20
166.47456790122399
 11
338.85040327338641
 21
159.17456890122412
  0
LINE
  8
_0-1_
  6
CONTINUOUS
 62
    7
 10
328.10714527338575
 20
157.17456890122412
 11
329.10714527338575
 21
157.17456890122412
  0
LINE
  8
_0-1_
  6
CONTINUOUS
 62
    7
 10
326.10714527338575
 20
157.17456890122412
 11
326.60714527338575
 21
159.17456890122412
  0
LINE
  8
_0-1_
  6
CONTINUOUS
 62
    7
 10
328.10714527338575
 20
157.17456890122412
 11
327.60714527338575
 21
159.17456890122412
  0
LINE
  8
_0-1_
  6
CONTINUOUS
 62
    7
 10
326.60714527338575
 20
159.17456890122412
 11
327.60714527338575
 21
159.17456890122412
  0
LINE
  8
_0-1_
  6
CONTINUOUS
 62
    7
 10
325.10714527338575
 20
157.17456890122412
 11
326.10714527338575
 21
157.17456890122412
  0
LINE
  8
_0-1_
  6
CONTINUOUS
 62
    7
 10
323.10714527338575
 20
157.17456890122412
 11
323.60714527338575
 21
159.17456890122412
  0
LINE
  8
_0-1_
  6
CONTINUOUS
 62
    7
 10
325.10714527338575
 20
157.17456890122412
 11
324.60714527338575
 21
159.17456890122412
  0
LINE
  8
_0-1_
  6
CONTINUOUS
 62
    7
 10
323.60714527338575
 20
159.17456890122412
 11
324.60714527338575
 21
159.17456890122412
  0
LINE
  8
_0-1_
  6
CONTINUOUS
 62
    7
 10
322.10714527338575
 20
157.17456890122412
 11
323.10714527338575
 21
157.17456890122412
  0
LINE
  8
_0-1_
  6
CONTINUOUS
 62
    7
 10
320.10714527338575
 20
157.17456890122412
 11
320.60714527338575
 21
159.17456890122412
  0
LINE
  8
_0-1_
  6
CONTINUOUS
 62
    7
 10
322.10714527338575
 20
157.17456890122412
 11
321.60714527338575
 21
159.17456890122412
  0
LINE
  8
_0-1_
  6
CONTINUOUS
 62
    7
 10
320.60714527338575
 20
159.17456890122412
 11
321.60714527338575
 21
159.17456890122412
  0
LINE
  8
_0-1_
  6
CONTINUOUS
 62
    7
 10
319.10714527338575
 20
157.17456890122412
 11
320.10714527338575
 21
157.17456890122412
  0
LINE
  8
_0-1_
  6
CONTINUOUS
 62
    7
 10
319.10714527338575
 20
157.17456890122412
 11
318.60714527338575
 21
159.17456890122412
  0
LINE
  8
_0-1_
  6
CONTINUOUS
 62
    7
 10
200.58593563969646
 20
154.295889099101
 11
205.70725612893932
 21
152.17456890122457
  0
LINE
  8
_0-1_
  6
CONTINUOUS
 62
    7
 10
232.10714527338575
 20
157.17456890122412
 11
231.60714527338575
 21
159.17456890122412
  0
LINE
  8
_0-1_
  6
CONTINUOUS
 62
    7
 10
229.10714527338575
 20
157.17456890122412
 11
230.10714527338575
 21
157.17456890122412
  0
LINE
  8
_0-1_
  6
CONTINUOUS
 62
    7
 10
230.10714527338575
 20
157.17456890122412
 11
230.60714527338575
 21
159.17456890122412
  0
LINE
  8
_0-1_
  6
CONTINUOUS
 62
    7
 10
230.60714527338575
 20
159.17456890122412
 11
231.60714527338575
 21
159.17456890122412
  0
LINE
  8
_0-1_
  6
CONTINUOUS
 62
    7
 10
235.10714527338575
 20
157.17456890122412
 11
234.60714527338575
 21
159.17456890122412
  0
LINE
  8
_0-1_
  6
CONTINUOUS
 62
    7
 10
232.10714527338575
 20
157.17456890122412
 11
233.10714527338575
 21
157.17456890122412
  0
LINE
  8
_0-1_
  6
CONTINUOUS
 62
    7
 10
233.10714527338575
 20
157.17456890122412
 11
233.60714527338575
 21
159.17456890122412
  0
LINE
  8
_0-1_
  6
CONTINUOUS
 62
    7
 10
233.60714527338575
 20
159.17456890122412
 11
234.60714527338575
 21
159.17456890122412
  0
LINE
  8
_0-1_
  6
CONTINUOUS
 62
    7
 10
238.10714527338575
 20
157.17456890122412
 11
237.60714527338575
 21
159.17456890122412
  0
LINE
  8
_0-1_
  6
CONTINUOUS
 62
    7
 10
235.10714527338575
 20
157.17456890122412
 11
236.10714527338575
 21
157.17456890122412
  0
LINE
  8
_0-1_
  6
CONTINUOUS
 62
    7
 10
236.10714527338575
 20
157.17456890122412
 11
236.60714527338575
 21
159.17456890122412
  0
LINE
  8
_0-1_
  6
CONTINUOUS
 62
    7
 10
236.60714527338575
 20
159.17456890122412
 11
237.60714527338575
 21
159.17456890122412
  0
LINE
  8
_0-1_
  6
CONTINUOUS
 62
    7
 10
241.10714527338575
 20
157.17456890122412
 11
240.60714527338575
 21
159.17456890122412
  0
LINE
  8
_0-1_
  6
CONTINUOUS
 62
    7
 10
238.10714527338575
 20
157.17456890122412
 11
239.10714527338575
 21
157.17456890122412
  0
LINE
  8
_0-1_
  6
CONTINUOUS
 62
    7
 10
239.10714527338575
 20
157.17456890122412
 11
239.60714527338575
 21
159.17456890122412
  0
LINE
  8
_0-1_
  6
CONTINUOUS
 62
    7
 10
239.60714527338575
 20
159.17456890122412
 11
240.60714527338575
 21
159.17456890122412
  0
LINE
  8
_0-1_
  6
CONTINUOUS
 62
    7
 10
244.10714527338575
 20
157.17456890122412
 11
243.60714527338575
 21
159.17456890122412
  0
LINE
  8
_0-1_
  6
CONTINUOUS
 62
    7
 10
241.10714527338575
 20
157.17456890122412
 11
242.10714527338575
 21
157.17456890122412
  0
LINE
  8
_0-1_
  6
CONTINUOUS
 62
    7
 10
242.10714527338575
 20
157.17456890122412
 11
242.60714527338575
 21
159.17456890122412
  0
LINE
  8
_0-1_
  6
CONTINUOUS
 62
    7
 10
242.60714527338575
 20
159.17456890122412
 11
243.60714527338575
 21
159.17456890122412
  0
LINE
  8
_0-1_
  6
CONTINUOUS
 62
    7
 10
247.10714527338575
 20
157.17456890122412
 11
246.60714527338575
 21
159.17456890122412
  0
LINE
  8
_0-1_
  6
CONTINUOUS
 62
    7
 10
244.10714527338575
 20
157.17456890122412
 11
245.10714527338575
 21
157.17456890122412
  0
LINE
  8
_0-1_
  6
CONTINUOUS
 62
    7
 10
245.10714527338575
 20
157.17456890122412
 11
245.60714527338575
 21
159.17456890122412
  0
LINE
  8
_0-1_
  6
CONTINUOUS
 62
    7
 10
245.60714527338575
 20
159.17456890122412
 11
246.60714527338575
 21
159.17456890122412
  0
LINE
  8
_0-1_
  6
CONTINUOUS
 62
    7
 10
250.10714527338575
 20
157.17456890122412
 11
249.60714527338575
 21
159.17456890122412
  0
LINE
  8
_0-1_
  6
CONTINUOUS
 62
    7
 10
247.10714527338575
 20
157.17456890122412
 11
248.10714527338575
 21
157.17456890122412
  0
LINE
  8
_0-1_
  6
CONTINUOUS
 62
    7
 10
248.10714527338575
 20
157.17456890122412
 11
248.60714527338575
 21
159.17456890122412
  0
LINE
  8
_0-1_
  6
CONTINUOUS
 62
    7
 10
248.60714527338575
 20
159.17456890122412
 11
249.60714527338575
 21
159.17456890122412
  0
LINE
  8
_0-1_
  6
CONTINUOUS
 62
    7
 10
253.10714527338575
 20
157.17456890122412
 11
252.60714527338575
 21
159.17456890122412
  0
LINE
  8
_0-1_
  6
CONTINUOUS
 62
    7
 10
250.10714527338575
 20
157.17456890122412
 11
251.10714527338575
 21
157.17456890122412
  0
LINE
  8
_0-1_
  6
CONTINUOUS
 62
    7
 10
251.10714527338575
 20
157.17456890122412
 11
251.60714527338575
 21
159.17456890122412
  0
LINE
  8
_0-1_
  6
CONTINUOUS
 62
    7
 10
251.60714527338575
 20
159.17456890122412
 11
252.60714527338575
 21
159.17456890122412
  0
LINE
  8
_0-1_
  6
CONTINUOUS
 62
    7
 10
256.10714527338575
 20
157.17456890122412
 11
255.60714527338575
 21
159.17456890122412
  0
LINE
  8
_0-1_
  6
CONTINUOUS
 62
    7
 10
253.10714527338575
 20
157.17456890122412
 11
254.10714527338575
 21
157.17456890122412
  0
LINE
  8
_0-1_
  6
CONTINUOUS
 62
    7
 10
254.10714527338575
 20
157.17456890122412
 11
254.60714527338575
 21
159.17456890122412
  0
LINE
  8
_0-1_
  6
CONTINUOUS
 62
    7
 10
254.60714527338575
 20
159.17456890122412
 11
255.60714527338575
 21
159.17456890122412
  0
LINE
  8
_0-1_
  6
CONTINUOUS
 62
    7
 10
259.10714527338575
 20
157.17456890122412
 11
258.60714527338575
 21
159.17456890122412
  0
LINE
  8
_0-1_
  6
CONTINUOUS
 62
    7
 10
256.10714527338575
 20
157.17456890122412
 11
257.10714527338575
 21
157.17456890122412
  0
LINE
  8
_0-1_
  6
CONTINUOUS
 62
    7
 10
257.10714527338575
 20
157.17456890122412
 11
257.60714527338575
 21
159.17456890122412
  0
LINE
  8
_0-1_
  6
CONTINUOUS
 62
    7
 10
257.60714527338575
 20
159.17456890122412
 11
258.60714527338575
 21
159.17456890122412
  0
LINE
  8
_0-1_
  6
CONTINUOUS
 62
    7
 10
262.10714527338575
 20
157.17456890122412
 11
261.60714527338575
 21
159.17456890122412
  0
LINE
  8
_0-1_
  6
CONTINUOUS
 62
    7
 10
259.10714527338575
 20
157.17456890122412
 11
260.10714527338575
 21
157.17456890122412
  0
LINE
  8
_0-1_
  6
CONTINUOUS
 62
    7
 10
260.10714527338575
 20
157.17456890122412
 11
260.60714527338575
 21
159.17456890122412
  0
LINE
  8
_0-1_
  6
CONTINUOUS
 62
    7
 10
260.60714527338575
 20
159.17456890122412
 11
261.60714527338575
 21
159.17456890122412
  0
LINE
  8
_0-1_
  6
CONTINUOUS
 62
    7
 10
262.10714527338575
 20
157.17456890122412
 11
263.10714527338575
 21
157.17456890122412
  0
LINE
  8
_0-1_
  6
CONTINUOUS
 62
    7
 10
263.10714527338575
 20
157.17456890122412
 11
263.60714527338575
 21
159.17456890122412
  0
LINE
  8
_0-1_
  6
CONTINUOUS
 62
    7
 10
205.70725612893932
 20
152.17456890122457
 11
263.6072562732885
 21
152.17456890122457
  0
LINE
  8
_0-1_
  6
CONTINUOUS
 62
    7
 10
318.60725627328827
 20
152.17456890122457
 11
334.50725638448728
 21
152.17456890122457
  0
LINE
  8
_0-5__
  6
CENTER1
 62
    4
 10
399.60725627328492
 20
239.79084400589332
 11
399.60725627328492
 21
347.15418829563447
  0
LINE
  8
_0-1_
  6
CONTINUOUS
 62
  136
 10
204.60714527338368
 20
275.79812121294384
 11
204.60714527338368
 21
312.79812121294248
  0
LINE
  8
_0-1_
  6
CONTINUOUS
 62
  136
 10
206.60714527338379
 20
312.79812121294248
 11
206.60714527338379
 21
275.79812121294469
  0
LINE
  8
_0-1_
  6
CONTINUOUS
 62
  136
 10
207.60714527338374
 20
275.79812121294469
 11
207.60714527338374
 21
312.79812121294248
  0
LINE
  8
_0-1_
  6
CONTINUOUS
 62
  136
 10
209.60714527338385
 20
312.79812121294248
 11
209.60714527338385
 21
275.79812121294469
  0
LINE
  8
_0-1_
  6
CONTINUOUS
 62
  136
 10
210.60714527338379
 20
275.79812121294469
 11
210.60714527338379
 21
312.79812121294248
  0
LINE
  8
_0-1_
  6
CONTINUOUS
 62
  136
 10
212.60714527338388
 20
312.79812121294248
 11
212.60714527338388
 21
275.79812121294469
  0
LINE
  8
_0-1_
  6
CONTINUOUS
 62
  136
 10
213.60714527338382
 20
275.79812121294469
 11
213.60714527338382
 21
312.79812121294248
  0
LINE
  8
_0-1_
  6
CONTINUOUS
 62
  136
 10
215.60714527338371
 20
312.79812121294248
 11
215.60714527338371
 21
275.79812121294469
  0
LINE
  8
_0-1_
  6
CONTINUOUS
 62
  136
 10
216.60714527338365
 20
275.79812121294469
 11
216.60714527338365
 21
312.79812121294248
  0
LINE
  8
_0-1_
  6
CONTINUOUS
 62
  136
 10
218.60714527338374
 20
312.79812121294248
 11
218.60714527338374
 21
275.79812121294469
  0
LINE
  8
_0-1_
  6
CONTINUOUS
 62
  136
 10
219.60714527338368
 20
275.79812121294469
 11
219.60714527338368
 21
312.79812121294248
  0
LINE
  8
_0-1_
  6
CONTINUOUS
 62
  136
 10
221.60714527338379
 20
312.79812121294248
 11
221.60714527338379
 21
275.79812121294469
  0
LINE
  8
_0-1_
  6
CONTINUOUS
 62
  136
 10
222.60714527338374
 20
275.79812121294469
 11
222.60714527338374
 21
312.79812121294248
  0
LINE
  8
_0-1_
  6
CONTINUOUS
 62
  136
 10
224.60714527338385
 20
312.79812121294248
 11
224.60714527338385
 21
275.79812121294469
  0
LINE
  8
_0-1_
  6
CONTINUOUS
 62
  136
 10
225.60714527338379
 20
275.79812121294469
 11
225.60714527338379
 21
312.79812121294248
  0
LINE
  8
_0-1_
  6
CONTINUOUS
 62
  136
 10
227.60714527338388
 20
312.79812121294248
 11
227.60714527338388
 21
275.79812121294469
  0
LINE
  8
_0-1_
  6
CONTINUOUS
 62
  136
 10
228.60714527338382
 20
275.79812121294469
 11
228.60714527338382
 21
312.79812121294248
  0
LINE
  8
_0-1_
  6
CONTINUOUS
 62
  136
 10
230.60714527338371
 20
312.79812121294248
 11
230.60714527338371
 21
275.79812121294469
  0
LINE
  8
_0-1_
  6
CONTINUOUS
 62
  136
 10
231.60714527338365
 20
275.79812121294469
 11
231.60714527338365
 21
312.79812121294248
  0
LINE
  8
_0-1_
  6
CONTINUOUS
 62
  136
 10
233.60714527338374
 20
312.79812121294248
 11
233.60714527338374
 21
275.79812121294469
  0
LINE
  8
_0-1_
  6
CONTINUOUS
 62
  136
 10
234.60714527338368
 20
275.79812121294469
 11
234.60714527338368
 21
312.79812121294248
  0
LINE
  8
_0-1_
  6
CONTINUOUS
 62
  136
 10
236.60714527338379
 20
312.79812121294248
 11
236.60714527338379
 21
275.79812121294469
  0
LINE
  8
_0-1_
  6
CONTINUOUS
 62
  136
 10
237.60714527338374
 20
275.79812121294469
 11
237.60714527338374
 21
312.79812121294248
  0
LINE
  8
_0-1_
  6
CONTINUOUS
 62
  136
 10
239.60714527338385
 20
312.79812121294248
 11
239.60714527338385
 21
275.79812121294469
  0
LINE
  8
_0-1_
  6
CONTINUOUS
 62
  136
 10
240.60714527338379
 20
275.79812121294469
 11
240.60714527338379
 21
312.79812121294248
  0
LINE
  8
_0-1_
  6
CONTINUOUS
 62
  136
 10
242.60714527338388
 20
312.79812121294248
 11
242.60714527338388
 21
275.79812121294469
  0
LINE
  8
_0-1_
  6
CONTINUOUS
 62
  136
 10
243.60714527338382
 20
275.79812121294469
 11
243.60714527338382
 21
312.79812121294248
  0
LINE
  8
_0-1_
  6
CONTINUOUS
 62
  136
 10
245.60714527338371
 20
312.79812121294248
 11
245.60714527338371
 21
275.79812121294469
  0
LINE
  8
_0-1_
  6
CONTINUOUS
 62
  136
 10
246.60714527338365
 20
275.79812121294469
 11
246.60714527338365
 21
312.79812121294248
  0
LINE
  8
_0-1_
  6
CONTINUOUS
 62
  136
 10
248.60714527338374
 20
312.79812121294248
 11
248.60714527338374
 21
275.79812121294469
  0
LINE
  8
_0-1_
  6
CONTINUOUS
 62
  136
 10
249.60714527338368
 20
275.79812121294469
 11
249.60714527338368
 21
312.79812121294248
  0
LINE
  8
_0-1_
  6
CONTINUOUS
 62
  136
 10
251.60714527338379
 20
312.79812121294248
 11
251.60714527338379
 21
275.79812121294469
  0
LINE
  8
_0-1_
  6
CONTINUOUS
 62
  136
 10
252.60714527338374
 20
275.79812121294469
 11
252.60714527338374
 21
312.79812121294248
  0
LINE
  8
_0-1_
  6
CONTINUOUS
 62
  136
 10
254.60714527338385
 20
312.79812121294248
 11
254.60714527338385
 21
275.79812121294469
  0
LINE
  8
_0-1_
  6
CONTINUOUS
 62
  136
 10
255.60714527338379
 20
275.79812121294469
 11
255.60714527338379
 21
312.79812121294248
  0
LINE
  8
_0-1_
  6
CONTINUOUS
 62
  136
 10
257.60714527338388
 20
312.79812121294248
 11
257.60714527338388
 21
275.79812121294469
  0
LINE
  8
_0-1_
  6
CONTINUOUS
 62
  136
 10
261.60714527338365
 20
275.79812121294469
 11
261.60714527338365
 21
312.79812121294248
  0
LINE
  8
_0-1_
  6
CONTINUOUS
 62
  136
 10
260.60714527338371
 20
312.79812121294248
 11
260.60714527338371
 21
275.79812121294469
  0
LINE
  8
_0-1_
  6
CONTINUOUS
 62
  136
 10
258.60714527338382
 20
275.79812121294469
 11
258.60714527338382
 21
312.79812121294248
  0
LINE
  8
_0-1_
  6
CENTER1
 62
    4
 10
169.99060232616335
 20
294.29812121294356
 11
413.1867042765922
 21
294.29812121294356
  0
LINE
  8
_0-1_
  6
CENTER1
 62
    4
 10
273.60725627328839
 20
184.47794283821631
 11
273.60725627328839
 21
170.43395492758157
  0
LINE
  8
_0-5__
  6
CENTER1
 62
    4
 10
301.60699999999997
 20
166.17456890122395
 11
315.60699999999997
 21
166.17456890122395
  0
LINE
  8
_0-5__
  6
CENTER1
 62
    4
 10
308.60725627328702
 20
159.17449367440793
 11
308.60725627328702
 21
173.17449367440793
  0
LINE
  8
_0-5__
  6
CENTER1
 62
    4
 10
399.60725627328839
 20
182.17459367440796
 11
399.60725627328839
 21
201.7608492647563
  0
LINE
  8
_0-5__
  6
CENTER1
 62
    4
 10
390.65189186260358
 20
189.17456891176914
 11
409.54679185328268
 21
189.17456891176914
  0
LINE
  8
_0-1_
  6
CENTER1
 62
    4
 10
308.60725627328793
 20
319.50718487459011
 11
308.60725627328793
 21
304.26916281147555
  0
LINE
  8
_0-1_
  6
CENTER1
 62
    4
 10
308.60725627328793
 20
269.089057551297
 11
308.60725627328793
 21
284.32707961441156
  0
LINE
  8
_0-1_
  6
CENTER1
 62
    4
 10
273.60725627328839
 20
302.24784049955929
 11
273.60725627328839
 21
284.60307338478179
  0
LINE
  8
_0-5__
  6
CENTER1
 62
    4
 10
556.69499999999994
 20
167.67456891176914
 11
572.44499999999994
 21
167.67456891176914
  0
LINE
  8
_0-5__
  6
CENTER1
 62
    4
 10
564.57049251773901
 20
159.79933626580856
 11
564.57049251773901
 21
175.54953626580857
  0
LINE
  8
_0-5__
  6
CENTER1
 62
    4
 10
636.69549251773947
 20
167.67456891176917
 11
652.44549251773947
 21
167.67456891176917
  0
LINE
  8
_0-5__
  6
CENTER1
 62
    4
 10
644.57049251773947
 20
159.79956891176917
 11
644.57049251773947
 21
175.54956891176917
  0
LINE
  8
_0-5__
  6
CENTER1
 62
    4
 10
638.44549251773947
 20
151.67456891176917
 11
650.69549251773947
 21
151.67456891176917
  0
LINE
  8
_0-5__
  6
CENTER1
 62
    4
 10
644.57049251773947
 20
145.54956891176917
 11
644.57049251773947
 21
157.79956891176917
  0
LINE
  8
_0-5__
  6
CENTER1
 62
    4
 10
558.44549251773947
 20
151.67456891176917
 11
570.69549251773947
 21
151.67456891176917
  0
LINE
  8
_0-5__
  6
CENTER1
 62
    4
 10
564.57049251773947
 20
145.54956891176917
 11
564.57049251773947
 21
157.79956891176917
  0
LINE
  8
_0-1_
  6
CENTER1
 62
    4
 10
398.73735120359805
 20
167.67456891176914
 11
411.31166521647742
 21
167.67456891176914
  0
LINE
  8
_0-1_
  6
CENTER1
 62
    4
 10
398.73735120359805
 20
151.67456891176914
 11
411.31166521647742
 21
151.67456891176914
  0
LINE
  8
_0-1_
  6
CENTER1
 62
    4
 10
390.20158741884586
 20
254.29812121294304
 11
412.49392542205385
 21
254.29812121294304
  0
LINE
  8
_0-1_
  6
CENTER1
 62
    4
 10
390.20158741884586
 20
334.29812121294367
 11
412.49392542205385
 21
334.29812121294367
  0
LINE
  8
_0-1_
  6
DASHED1
 62
    3
 10
407.60725627328839
 20
172.17456891176917
 11
402.60725627328839
 21
172.17456891176917
  0
LINE
  8
_0-1_
  6
DASHED1
 62
    3
 10
407.60725627328839
 20
163.17456891176917
 11
402.60725627328839
 21
163.17456891176917
  0
LINE
  8
_0-1_
  6
DASHED1
 62
    3
 10
407.60725627328839
 20
155.17456891176917
 11
402.60725627328839
 21
155.17456891176917
  0
LINE
  8
_0-1_
  6
DASHED1
 62
    3
 10
407.60725627328839
 20
148.17456891176917
 11
402.60725627328839
 21
148.17456891176917
  0
LINE
  8
_0-1_
  6
DASHED1
 62
    3
 10
407.60725627328839
 20
249.79812121294304
 11
402.60725627328839
 21
249.79812121294304
  0
LINE
  8
_0-1_
  6
DASHED1
 62
    3
 10
407.60725627328839
 20
258.79812121294304
 11
402.60725627328839
 21
258.79812121294304
  0
LINE
  8
_0-1_
  6
DASHED1
 62
    3
 10
407.60725627328839
 20
329.79812121294367
 11
402.60725627328839
 21
329.79812121294367
  0
LINE
  8
_0-1_
  6
DASHED1
 62
    3
 10
407.60725627328839
 20
338.79812121294367
 11
402.60725627328839
 21
338.79812121294367
  0
LINE
  8
_0-1_
  6
CONTINUOUS
 62
    7
 10
377.60725627328844
 20
184.67456891168118
 11
378.10725627349672
 21
185.17456891188934
  0
LINE
  8
_0-1_
  6
CONTINUOUS
 62
    7
 10
377.60725627329253
 20
179.67456891189397
 11
378.10725627329708
 21
179.17456891188931
  0
LINE
  8
_0-1_
  6
CONTINUOUS
 62
    7
 10
378.10725627349672
 20
185.17456891188934
 11
378.10725627329708
 21
179.17456891188931
  0
LINE
  8
_0-1_
  6
CONTINUOUS
 62
    7
 10
377.60725627328844
 20
184.67456891168118
 11
377.60725627328844
 21
179.67456891168118
  0
LINE
  8
_0-1_
  6
CONTINUOUS
 62
    7
 10
407.60725627328839
 20
312.79812121294333
 11
283.60725627328651
 21
312.79812121294333
  0
LINE
  8
_0-1_
  6
CONTINUOUS
 62
    7
 10
395.60725627328719
 20
344.29812121294367
 11
407.60725627328702
 21
344.29812121294367
  0
LINE
  8
_0-1_
  6
CONTINUOUS
 62
    7
 10
395.60725627328782
 20
244.2981212129456
 11
407.60725627328839
 21
244.2981212129456
  0
LINE
  8
_0-1_
  6
CONTINUOUS
 62
    7
 10
407.60725627328839
 20
244.2981212129439
 11
407.60725627328839
 21
344.29812121294367
  0
LINE
  8
_0-1_
  6
CONTINUOUS
 62
    7
 10
395.60725627328713
 20
244.29812121294304
 11
407.60725627328702
 21
244.29812121294304
  0
LINE
  8
_0-1_
  6
CONTINUOUS
 62
    7
 10
395.60725627328816
 20
344.29812121294367
 11
395.60725627328816
 21
312.79812121294333
  0
LINE
  8
_0-1_
  6
CONTINUOUS
 62
    7
 10
395.60725627328816
 20
275.79812121294378
 11
395.6072562732881
 21
244.2981212129456
  0
LINE
  8
_0-1_
  6
CONTINUOUS
 62
    7
 10
407.60725627328702
 20
275.79812121294378
 11
283.60725627328691
 21
275.79812121294384
  0
LINE
  8
_0-1_
  6
CONTINUOUS
 62
    7
 10
283.60725627328691
 20
273.7981212129435
 11
263.60725627328929
 21
273.7981212129435
  0
LINE
  8
_0-1_
  6
CONTINUOUS
 62
    7
 10
263.60725627328935
 20
314.79812121294361
 11
283.60725627328651
 21
314.79812121294361
  0
LINE
  8
_0-1_
  6
CONTINUOUS
 62
    7
 10
298.60725627328799
 20
314.79812120752462
 11
318.60725627328793
 21
314.79812120752462
  0
LINE
  8
_0-1_
  6
CONTINUOUS
 62
    7
 10
298.60725627328799
 20
273.79812121752479
 11
318.60725627328793
 21
273.79812121752479
  0
LINE
  8
_0-1_
  6
CONTINUOUS
 62
    7
 10
318.60725627328793
 20
314.79812120752462
 11
318.60725627328793
 21
312.79812121294333
  0
LINE
  8
_0-1_
  6
CONTINUOUS
 62
    7
 10
318.60725627328793
 20
275.79812121294384
 11
318.60725627328793
 21
273.79812121752479
  0
LINE
  8
_0-1_
  6
CONTINUOUS
 62
    7
 10
298.60725627328799
 20
314.79812120752462
 11
298.60725627328799
 21
312.79812121294333
  0
LINE
  8
_0-1_
  6
CONTINUOUS
 62
    7
 10
298.60725627328799
 20
275.79812121294384
 11
298.60725627328799
 21
273.79812121752479
  0
LINE
  8
_0-1_
  6
CONTINUOUS
 62
    7
 10
392.19105778619246
 20
312.79812121294333
 11
392.19105778619246
 21
275.79812121294378
  0
LINE
  8
_0-1_
  6
CONTINUOUS
 62
    7
 10
195.47832346228824
 20
275.79812121294384
 11
195.47832346228824
 21
312.79812121294333
  0
LINE
  8
_0-1_
  6
CONTINUOUS
 62
    7
 10
202.77832346495362
 20
275.79812121294469
 11
202.77832346495362
 21
312.79812121294248
  0
LINE
  8
_0-1_
  6
CONTINUOUS
 62
    7
 10
326.6072562732877
 20
312.79812121294333
 11
326.6072562732877
 21
275.79812121294384
  0
LINE
  8
_0-1_
  6
CONTINUOUS
 62
    7
 10
293.60725627328782
 20
312.79812121294333
 11
293.60725627328782
 21
275.79812121294384
  0
LINE
  8
_0-1_
  6
CONTINUOUS
 62
    7
 10
403.60725627328173
 20
344.29812121294367
 11
403.60725627328168
 21
312.79812121294333
  0
LINE
  8
_0-1_
  6
CONTINUOUS
 62
    7
 10
403.60725627328168
 20
275.79812121294378
 11
403.60725627328168
 21
244.2981212129456
  0
LINE
  8
_0-1_
  6
CONTINUOUS
 62
    7
 10
304.60725627328634
 20
273.79811977836243
 11
304.60725627328634
 21
273.37011977836227
  0
LINE
  8
_0-1_
  6
CONTINUOUS
 62
    7
 10
312.60725627328634
 20
273.79811977836243
 11
312.60725627328634
 21
273.37011977836227
  0
ARC
  8
_0-1_
  6
CONTINUOUS
 62
    7
 10
308.60725627328634
 20
276.99811977836248
 40
5.4000000000000004
 50
222.20545959472659
 51
317.7945556640625
  0
LINE
  8
_0-1_
  6
CONTINUOUS
 62
    7
 10
304.60725627328634
 20
314.79812120752462
 11
304.60725627328634
 21
315.22612120752473
  0
LINE
  8
_0-1_
  6
CONTINUOUS
 62
    7
 10
312.60725627328634
 20
314.79812120752462
 11
312.60725627328634
 21
315.22612120752473
  0
ARC
  8
_0-1_
  6
CONTINUOUS
 62
    7
 10
308.60725627328634
 20
311.59812120752451
 40
5.4000000000000004
 50
42.205444335937486
 51
137.79454040527341
  0
LINE
  8
_0-1_
  6
CONTINUOUS
 62
    7
 10
263.60725627328929
 20
275.79812121294384
 11
175.60725627328782
 21
275.79812121294384
  0
LINE
  8
_0-1_
  6
CONTINUOUS
 62
    7
 10
263.60725627328929
 20
312.79812121294333
 11
175.60725627328785
 21
312.79812121294333
  0
LINE
  8
_0-1_
  6
CONTINUOUS
 62
    7
 10
175.60725627228823
 20
275.79812121294384
 11
175.60725627228823
 21
312.79812121294333
  0
LINE
  8
_0-1_
  6
CONTINUOUS
 62
    7
 10
191.10725615558806
 20
275.79812121294384
 11
191.10725615558806
 21
312.79812121294333
  0
LINE
  8
_0-1_
  6
CONTINUOUS
 62
    7
 10
273.6072562733458
 20
175.17456890122401
 11
268.60725627334557
 21
175.17456890122401
  0
ARC
  8
_0-1_
  6
CONTINUOUS
 62
    7
 10
255.03729649174295
 20
183.37152713956255
 40
12.93500726993785
 50
358.03149910474161
 51
31.083108863399474
  0
ARC
  8
_0-1_
  6
CONTINUOUS
 62
    7
 10
272.50207843022531
 20
190.84682887474912
 40
13.58082795508666
 50
210.46500008218902
 51
249.28625005908279
  0
ARC
  8
_0-1_
  6
CONTINUOUS
 62
    7
 10
272.78885435324491
 20
188.87801315074501
 40
12.961410166444701
 50
186.67609384360941
 51
242.91471485564409
  0
LINE
  8
_0-1_
  6
CONTINUOUS
 62
    7
 10
268.65954035814332
 20
181.41269893449783
 11
267.50866389036821
 21
177.49798156082159
  0
LINE
  8
_0-1_
  6
CONTINUOUS
 62
    7
 10
273.6072562733458
 20
178.1438768240447
 11
267.69854877556827
 21
178.1438768240447
  0
ARC
  8
_0-1_
  6
CONTINUOUS
 62
    7
 10
269.6420185250538
 20
182.72466034813317
 40
6.0500914469094669
 50
252.18530044432094
 51
270.00000000000006
  0
LINE
  8
_0-1_
  6
CONTINUOUS
 62
    7
 10
266.88731348227304
 20
177.33808382465884
 11
267.79105615494893
 21
176.96466513802909
  0
ARC
  8
_0-1_
  6
CONTINUOUS
 62
    7
 10
267.92326775281367
 20
177.37609336732237
 40
0.432149389064962
 50
163.61734337442391
 51
252.18530044432086
  0
LINE
  8
_0-1_
  6
CONTINUOUS
 62
    7
 10
273.6072562733458
 20
176.67456890122401
 11
268.6072562733458
 21
176.67456890122401
  0
LINE
  8
_0-1_
  6
CONTINUOUS
 62
    7
 10
273.6072562733458
 20
182.03322132562937
 11
268.82845905108672
 21
182.03322132562937
  0
ARC
  8
_0-1_
  6
CONTINUOUS
 62
    7
 10
269.48874808303424
 20
181.16892254749962
 40
0.864298778129924
 50
90
 51
163.61734337442496
  0
ARC
  8
_0-1_
  6
CONTINUOUS
 62
    7
 10
268.82845905108672
 20
182.89752010375935
 40
0.864298778129924
 50
178.0314991047415
 51
270
  0
ARC
  8
_0-1_
  6
CONTINUOUS
 62
    7
 10
265.38123733874215
 20
189.59285266134509
 40
0.864298778129924
 50
31.02465151533098
 51
98.227350766669431
  0
ARC
  8
_0-1_
  6
CONTINUOUS
 62
    7
 10
265.00862111786194
 20
184.33818056507778
 40
6.1151444108038167
 50
87.666972256082175
 51
143.9756376520362
  0
ARC
  8
_0-1_
  6
CONTINUOUS
 62
    7
 10
260.70990775491509
 20
187.46417217269925
 40
0.8000000000000001
 50
143.9756376520354
 51
186.67609384360878
  0
ARC
  8
_0-1_
  6
CONTINUOUS
 62
    7
 10
282.20589142882943
 20
184.33818056507778
 40
6.1151444108038167
 50
36.02436234796378
 51
92.333027743917782
  0
ARC
  8
_0-1_
  6
CONTINUOUS
 62
    7
 10
274.42565819344668
 20
188.87801315074501
 40
12.961410166444701
 50
297.08528514435568
 51
353.32390615639048
  0
ARC
  8
_0-1_
  6
CONTINUOUS
 62
    7
 10
274.71243411646628
 20
190.84682887474912
 40
13.58082795508666
 50
290.71374994091701
 51
329.53499991781081
  0
ARC
  8
_0-1_
  6
CONTINUOUS
 62
    7
 10
286.50460479177627
 20
187.46417217269925
 40
0.8000000000000001
 50
353.32390615639122
 51
36.024362347964598
  0
ARC
  8
_0-1_
  6
CONTINUOUS
 62
    7
 10
292.17721605494864
 20
183.37152713956255
 40
12.93500726993785
 50
148.91689113660041
 51
181.9685008952583
  0
LINE
  8
_0-1_
  6
CONTINUOUS
 62
    7
 10
273.6072562733458
 20
182.03322132562937
 11
278.38605349560487
 21
182.03322132562937
  0
LINE
  8
_0-1_
  6
CONTINUOUS
 62
    7
 10
273.6072562733458
 20
176.67456890122401
 11
278.60725627334568
 21
176.67456890122401
  0
LINE
  8
_0-1_
  6
CONTINUOUS
 62
    7
 10
273.6072562733458
 20
178.1438768240447
 11
279.51596377112344
 21
178.1438768240447
  0
ARC
  8
_0-1_
  6
CONTINUOUS
 62
    7
 10
278.38605349560487
 20
182.89752010375935
 40
0.864298778129924
 50
270
 51
1.9685008952583993
  0
ARC
  8
_0-1_
  6
CONTINUOUS
 62
    7
 10
277.72576446365736
 20
181.16892254749962
 40
0.864298778129924
 50
16.3826566255748
 51
90
  0
ARC
  8
_0-1_
  6
CONTINUOUS
 62
    7
 10
279.29124479387792
 20
177.37609336732237
 40
0.432149389064962
 50
287.81469955567894
 51
16.382656625575837
  0
LINE
  8
_0-1_
  6
CONTINUOUS
 62
    7
 10
280.32719906441844
 20
177.33808382465884
 11
279.42345639174243
 21
176.96466513802909
  0
ARC
  8
_0-1_
  6
CONTINUOUS
 62
    7
 10
277.57249402163779
 20
182.72466034813317
 40
6.0500914469094669
 50
270
 51
287.81469955567889
  0
LINE
  8
_0-1_
  6
CONTINUOUS
 62
    7
 10
278.55497218854828
 20
181.41269893449783
 11
279.70584865632327
 21
177.49798156082159
  0
ARC
  8
_0-1_
  6
CONTINUOUS
 62
    7
 10
281.83327520794921
 20
189.59285266134509
 40
0.864298778129924
 50
81.772649233330569
 51
148.97534848466901
  0
LINE
  8
_0-1_
  6
CONTINUOUS
 62
    7
 10
273.6072562733458
 20
175.17456890122401
 11
278.60725627334568
 21
175.17456890122401
  0
LINE
  8
_0-1_
  6
CONTINUOUS
 62
    7
 10
268.10725627334568
 20
175.67456890122401
 11
268.10725627334568
 21
176.17456890122401
  0
LINE
  8
_0-1_
  6
CONTINUOUS
 62
    7
 10
279.1072562733458
 20
175.67456890122401
 11
279.1072562733458
 21
176.17456890122401
  0
ARC
  8
_0-1_
  6
CONTINUOUS
 62
    7
 10
268.6072562733458
 20
176.17456890122401
 40
0.5
 50
90
 51
180
  0
ARC
  8
_0-1_
  6
CONTINUOUS
 62
    7
 10
268.60725627334557
 20
175.67456890122401
 40
0.5
 50
180
 51
270
  0
ARC
  8
_0-1_
  6
CONTINUOUS
 62
    7
 10
278.60725627334568
 20
176.17456890122401
 40
0.5
 50
0
 51
90
  0
ARC
  8
_0-1_
  6
CONTINUOUS
 62
    7
 10
278.60725627334568
 20
175.67456890122401
 40
0.5
 50
270
 51
359.99999999999977
  0
LINE
  8
_0-1_
  6
CONTINUOUS
 62
    7
 10
273.6072562733458
 20
182.33322132562932
 11
276.6072562733458
 21
182.33322132562932
  0
LINE
  8
_0-1_
  6
CONTINUOUS
 62
    7
 10
273.6072562733458
 20
182.33322132562932
 11
270.6072562733458
 21
182.33322132562932
  0
LINE
  8
_0-1_
  6
CONTINUOUS
 62
    7
 10
270.6072562733458
 20
182.03322132562937
 11
270.6072562733458
 21
182.33322132562932
  0
LINE
  8
_0-1_
  6
CONTINUOUS
 62
    7
 10
276.6072562733458
 20
182.03322132562937
 11
276.6072562733458
 21
182.33322132562932
  0
LINE
  8
_0-1_
  6
CONTINUOUS
 62
    7
 10
276.6072562733458
 20
173.7245900559152
 11
276.6072562733458
 21
175.17456890122401
  0
LINE
  8
_0-1_
  6
CONTINUOUS
 62
    7
 10
276.10725627334375
 20
175.17456890122401
 11
276.10725627334375
 21
173.7245900559152
  0
LINE
  8
_0-1_
  6
CONTINUOUS
 62
    7
 10
271.10725627334375
 20
175.17456890122401
 11
271.10725627334375
 21
173.7245900559152
  0
LINE
  8
_0-1_
  6
CONTINUOUS
 62
    7
 10
270.6072562733458
 20
173.7245900559152
 11
270.6072562733458
 21
175.17456890122401
  0
LINE
  8
_0-1_
  6
CONTINUOUS
 62
    7
 10
263.60725627328839
 20
145.27456921517754
 11
283.60725627328839
 21
145.27456921517754
  0
LINE
  8
_0-1_
  6
CONTINUOUS
 62
    7
 10
283.60725627328839
 20
173.7245900559152
 11
283.60725627328839
 21
145.27456921517754
  0
LINE
  8
_0-1_
  6
CONTINUOUS
 62
    7
 10
263.60725627328839
 20
173.7245900559152
 11
263.60725627328839
 21
145.27456921517754
  0
LINE
  8
_0-1_
  6
CONTINUOUS
 62
    7
 10
263.60725627328839
 20
173.7245900559152
 11
283.60725627328839
 21
173.7245900559152
  0
LINE
  8
_0-1_
  6
CONTINUOUS
 62
    7
 10
263.60725627328839
 20
147.72458532984419
 11
283.60725627328839
 21
147.72458532984419
  0
LINE
  8
_0-1_
  6
CONTINUOUS
 62
    7
 10
403.30725627328843
 20
197.67456891176911
 11
400.35578441071209
 21
197.67456891176911
  0
LINE
  8
_0-1_
  6
CONTINUOUS
 62
    7
 10
334.60725627328804
 20
177.17456891176917
 11
363.60725627328827
 21
187.17456891176917
  0
ARC
  8
_0-1_
  6
CONTINUOUS
 62
    7
 10
393.90725627328823
 20
177.97456891176918
 40
0.3
 50
180
 51
315.00000000001148
  0
LINE
  8
_0-1_
  6
CONTINUOUS
 62
    7
 10
394.11938830764427
 20
177.76243687741322
 11
394.53152034191214
 21
178.17456891168118
  0
LINE
  8
_0-1_
  6
CONTINUOUS
 62
    7
 10
397.30725627328832
 20
178.17456891168118
 11
394.53152034191214
 21
178.17456891168118
  0
ARC
  8
_0-1_
  6
CONTINUOUS
 62
    7
 10
397.30725627328832
 20
178.47456891168119
 40
0.3
 50
270
 51
0
  0
LINE
  8
_0-1_
  6
CONTINUOUS
 62
    7
 10
397.60725627328827
 20
181.42604077425736
 11
397.60725627328827
 21
178.47456891168119
  0
ARC
  8
_0-1_
  6
CONTINUOUS
 62
    7
 10
397.30725627328832
 20
181.42604077425736
 40
0.3
 50
0
 51
44.999999999998039
  0
LINE
  8
_0-1_
  6
CONTINUOUS
 62
    7
 10
397.51938830764425
 20
181.63817280861329
 11
397.19512423893229
 21
181.96243687732525
  0
ARC
  8
_0-1_
  6
CONTINUOUS
 62
    7
 10
397.40725627328823
 20
182.17456891168118
 40
0.3
 50
135.00000000000384
 51
224.99999999999619
  0
LINE
  8
_0-1_
  6
CONTINUOUS
 62
    7
 10
397.51938830764425
 20
182.71096501474906
 11
397.19512423893229
 21
182.38670094603711
  0
ARC
  8
_0-1_
  6
CONTINUOUS
 62
    7
 10
397.3072562732882
 20
182.923097049105
 40
0.3
 50
315.00000000000199
 51
0
  0
LINE
  8
_0-1_
  6
CONTINUOUS
 62
    7
 10
293.60725627328804
 20
179.17456890122426
 11
326.60725627328804
 21
192.17456891176917
  0
ARC
  8
_0-1_
  6
CONTINUOUS
 62
    7
 10
289.30725627328809
 20
159.87456890122431
 40
0.3
 50
0
 51
90
  0
LINE
  8
_0-1_
  6
CONTINUOUS
 62
    7
 10
289.60725627328804
 20
159.47456890122422
 11
289.60725627328804
 21
159.87456890122431
  0
ARC
  8
_0-1_
  6
CONTINUOUS
 62
    7
 10
289.907256273288
 20
159.47456890122422
 40
0.3
 50
180
 51
270
  0
LINE
  8
_0-1_
  6
CONTINUOUS
 62
    7
 10
292.30725627328798
 20
159.17456890122403
 11
289.907256273288
 21
159.17456890122403
  0
ARC
  8
_0-1_
  6
CONTINUOUS
 62
    7
 10
292.30725627328798
 20
159.47456890122422
 40
0.3
 50
270
 51
0
  0
LINE
  8
_0-1_
  6
CONTINUOUS
 62
    7
 10
292.60725627328793
 20
159.87456890122431
 11
292.60725627328793
 21
159.47456890122422
  0
ARC
  8
_0-1_
  6
CONTINUOUS
 62
    7
 10
292.90725627328789
 20
159.87456890122431
 40
0.3
 50
90
 51
180
  0
LINE
  8
_0-1_
  6
CONTINUOUS
 62
    7
 10
348.03984116708318
 20
183.92206186137824
 11
333.62072408019253
 21
178.94995252107114
  0
ARC
  8
_0-1_
  6
CONTINUOUS
 62
    7
 10
308.60725627328804
 20
179.70967561725948
 40
2
 50
111.50143433989672
 51
180
  0
LINE
  8
_0-1_
  6
CONTINUOUS
 62
    7
 10
307.87420723600826
 20
181.57049240269103
 11
327.17686297416503
 21
189.17456891176917
  0
LINE
  8
_0-1_
  6
CONTINUOUS
 62
    7
 10
347.15966632212087
 20
189.17456891176917
 11
327.17686297416503
 21
189.17456891176917
  0
ARC
  8
_0-1_
  6
CONTINUOUS
 62
    7
 10
347.15966632212087
 20
186.47456891176918
 40
2.7000000000000006
 50
289.02560603756859
 51
90.000000000000028
  0
ARC
  8
_0-1_
  6
CONTINUOUS
 62
    7
 10
287.44058960662142
 20
166.17456890122403
 40
2
 50
136.39718102729731
 51
270
  0
LINE
  8
_0-1_
  6
CONTINUOUS
 62
    7
 10
285.99231374455246
 20
167.55387924605171
 11
294.21788504414394
 21
176.19072911062304
  0
LINE
  8
_0-1_
  6
CONTINUOUS
 62
    7
 10
301.87420723600826
 20
179.20685603713733
 11
294.21788504414394
 21
176.19072911062304
  0
ARC
  8
_0-1_
  6
CONTINUOUS
 62
    7
 10
302.60725627328804
 20
177.346039251706
 40
2
 50
0
 51
111.50143433989658
  0
ARC
  8
_0-1_
  6
CONTINUOUS
 62
    7
 10
403.60907725601794
 20
187.46930388187332
 40
0.3
 50
156.92006633113297
 51
214.9999999999996
  0
LINE
  8
_0-1_
  6
CONTINUOUS
 62
    7
 10
397.60725627328827
 20
185.4823473582868
 11
397.60725627328827
 21
182.923097049105
  0
ARC
  8
_0-1_
  6
CONTINUOUS
 62
    7
 10
399.60725627328839
 20
189.17456891176911
 40
4.0499999999999998
 50
336.92006633113311
 51
238.07993366886222
  0
ARC
  8
_0-1_
  6
CONTINUOUS
 62
    7
 10
397.30725627328826
 20
185.4823473582868
 40
0.3
 50
0
 51
58.079933668862189
  0
ARC
  8
_0-1_
  6
CONTINUOUS
 62
    7
 10
400.35578441071209
 20
197.37456891176913
 40
0.3
 50
90
 51
134.99999999999804
  0
LINE
  8
_0-1_
  6
CONTINUOUS
 62
    7
 10
400.14365237635616
 20
197.58670094612512
 11
399.8193883076442
 21
197.26243687741317
  0
ARC
  8
_0-1_
  6
CONTINUOUS
 62
    7
 10
399.60725627328827
 20
197.47456891176915
 40
0.3
 50
225.00000000000384
 51
314.99999999999619
  0
LINE
  8
_0-1_
  6
CONTINUOUS
 62
    7
 10
399.07086017022039
 20
197.58670094612512
 11
399.39512423893234
 21
197.26243687741317
  0
ARC
  8
_0-1_
  6
CONTINUOUS
 62
    7
 10
398.85872813586445
 20
197.37456891176913
 40
0.3
 50
45.000000000001982
 51
90
  0
LINE
  8
_0-1_
  6
CONTINUOUS
 62
    7
 10
363.60725627328827
 20
187.17456891176917
 11
391.63229545833764
 21
187.17456891176917
  0
ARC
  8
_0-1_
  6
CONTINUOUS
 62
    7
 10
391.63229545833764
 20
186.87456891176919
 40
0.3
 50
16.087702538161356
 51
90
  0
LINE
  8
_0-1_
  6
CONTINUOUS
 62
    7
 10
326.60725627328804
 20
192.17456891176917
 11
391.99148316742452
 21
192.17456891176917
  0
ARC
  8
_0-1_
  6
CONTINUOUS
 62
    7
 10
391.99148316742452
 20
192.47456891176915
 40
0.3
 50
270
 51
336.57237349127968
  0
LINE
  8
_0-1_
  6
CONTINUOUS
 62
    7
 10
393.60725627328827
 20
177.97456891176918
 11
393.60725627328827
 21
183.77086647732671
  0
ARC
  8
_0-1_
  6
CONTINUOUS
 62
    7
 10
399.60725627328839
 20
189.17456891176911
 40
8
 50
196.08770253816144
 51
220.62069995133447
  0
ARC
  8
_0-1_
  6
CONTINUOUS
 62
    7
 10
393.30725627328826
 20
183.77086647732671
 40
0.3
 50
0
 51
40.620699951334174
  0
ARC
  8
_0-1_
  6
CONTINUOUS
 62
    7
 10
399.60725627328839
 20
189.17456891176911
 40
8
 50
121.20303307281048
 51
156.57237349128019
  0
ARC
  8
_0-1_
  6
CONTINUOUS
 62
    7
 10
395.30725627328837
 20
196.27386465148865
 40
0.3
 50
301.20303307281097
 51
0
  0
LINE
  8
_0-1_
  6
CONTINUOUS
 62
    7
 10
395.60725627328839
 20
197.37456891176913
 11
395.60725627328839
 21
196.27386465148865
  0
ARC
  8
_0-1_
  6
CONTINUOUS
 62
    7
 10
395.9072562732884
 20
197.37456891176913
 40
0.3
 50
90
 51
180
  0
ARC
  8
_0-1_
  6
CONTINUOUS
 62
    7
 10
403.30725627328843
 20
197.37456891176913
 40
0.3
 50
0
 51
90
  0
LINE
  8
_0-1_
  6
CONTINUOUS
 62
    7
 10
403.60725627328839
 20
197.37456891176913
 11
403.60725627328839
 21
196.27386465148865
  0
ARC
  8
_0-1_
  6
CONTINUOUS
 62
    7
 10
403.9072562732884
 20
196.27386465148865
 40
0.3
 50
180
 51
238.79696692718906
  0
LINE
  8
_0-1_
  6
CONTINUOUS
 62
    7
 10
404.40995633645775
 20
185.80249598081537
 11
403.36333164273128
 21
187.29723095096801
  0
ARC
  8
_0-1_
  6
CONTINUOUS
 62
    7
 10
404.65570194974441
 20
185.97456891172067
 40
0.3
 50
214.99999999999903
 51
270
  0
LINE
  8
_0-1_
  6
CONTINUOUS
 62
    7
 10
404.65570194974441
 20
185.67456891172068
 11
406.61082679122353
 21
185.67456891172068
  0
ARC
  8
_0-1_
  6
CONTINUOUS
 62
    7
 10
399.60725627328839
 20
189.17456891176911
 40
8
 50
335.44387469289103
 51
58.796966927189523
  0
ARC
  8
_0-1_
  6
CONTINUOUS
 62
    7
 10
406.61082679122353
 20
185.97456891172067
 40
0.3
 50
270
 51
335.44387469289069
  0
LINE
  8
_0-1_
  6
CONTINUOUS
 62
    7
 10
289.30725627328809
 20
160.17456890122403
 11
283.60725627328839
 21
160.17456890122403
  0
LINE
  8
_0-1_
  6
CONTINUOUS
 62
    7
 10
283.60725627328839
 20
168.67456890122429
 11
293.60725627328804
 21
179.17456890122426
  0
LINE
  8
_0-1_
  6
CONTINUOUS
 62
    7
 10
318.60725627328816
 20
164.17456890122412
 11
334.60725627328804
 21
177.17456891176917
  0
LINE
  8
_0-1_
  6
CONTINUOUS
 62
    7
 10
318.60725627328816
 20
166.7515099180664
 11
333.62072408019253
 21
178.94995252107114
  0
LINE
  8
_0-1_
  6
CONTINUOUS
 62
    7
 10
306.60725627328804
 20
179.70967561725948
 11
306.60725627328804
 21
170.67456890122386
  0
LINE
  8
_0-1_
  6
CONTINUOUS
 62
    7
 10
304.60725627328804
 20
177.346039251706
 11
304.60725627328804
 21
170.67456890122386
  0
LINE
  8
_0-1_
  6
CONTINUOUS
 62
    7
 10
287.44058960662142
 20
164.17456890122403
 11
298.60725627328816
 21
164.17456890122403
  0
LINE
  8
_0-1_
  6
CONTINUOUS
 62
    7
 10
298.60725627328816
 20
160.17456890122403
 11
292.90725627328789
 21
160.17456890122403
  0
LINE
  8
_0-1_
  6
CONTINUOUS
 62
    7
 10
298.60725627328816
 20
150.67456890122386
 11
318.60725627328816
 21
150.67456890122386
  0
LINE
  8
_0-1_
  6
CONTINUOUS
 62
    7
 10
298.60725627328816
 20
170.67456890122386
 11
298.60725627328816
 21
150.67456890122386
  0
LINE
  8
_0-1_
  6
CONTINUOUS
 62
    7
 10
298.60725627328816
 20
170.67456890122386
 11
318.60725627328816
 21
170.67456890122386
  0
LINE
  8
_0-1_
  6
CONTINUOUS
 62
    7
 10
318.60725627328816
 20
170.67456890122386
 11
318.60725627328816
 21
150.67456890122386
  0
CIRCLE
  8
_0-1_
  6
CONTINUOUS
 62
    7
 10
308.60725627328657
 20
166.17456890122401
 40
4
  0
LINE
  8
_0-1_
  6
CONTINUOUS
 62
    7
 10
307.65825627328655
 20
166.55656890122401
 11
306.87925627328656
 21
166.55656890122401
  0
LINE
  8
_0-1_
  6
CONTINUOUS
 62
    7
 10
307.65825627328655
 20
165.79256890122397
 11
306.87925627328656
 21
165.79256890122397
  0
LINE
  8
_0-1_
  6
CONTINUOUS
 62
    7
 10
308.22525627328656
 20
165.22556890122399
 11
308.22525627328656
 21
164.446568901224
  0
LINE
  8
_0-1_
  6
CONTINUOUS
 62
    7
 10
308.98925627328657
 20
165.22556890122399
 11
308.98925627328657
 21
164.446568901224
  0
LINE
  8
_0-1_
  6
CONTINUOUS
 62
    7
 10
309.55625627328658
 20
165.79256890122397
 11
310.33525627328657
 21
165.79256890122397
  0
LINE
  8
_0-1_
  6
CONTINUOUS
 62
    7
 10
309.55625627328658
 20
166.55656890122401
 11
310.33525627328657
 21
166.55656890122401
  0
LINE
  8
_0-1_
  6
CONTINUOUS
 62
    7
 10
308.98925627328657
 20
167.12356890122399
 11
308.98925627328657
 21
167.90256890122396
  0
LINE
  8
_0-1_
  6
CONTINUOUS
 62
    7
 10
308.22525627328656
 20
167.12356890122399
 11
308.22525627328656
 21
167.90256890122396
  0
ARC
  8
_0-1_
  6
CONTINUOUS
 62
    7
 10
307.65825627328655
 20
167.12356890122399
 40
0.5660000000000001
 50
270
 51
0
  0
ARC
  8
_0-1_
  6
CONTINUOUS
 62
    7
 10
309.55625627328658
 20
167.12356890122399
 40
0.5660000000000001
 50
180
 51
270
  0
ARC
  8
_0-1_
  6
CONTINUOUS
 62
    7
 10
309.55625627328658
 20
165.22556890122399
 40
0.5660000000000001
 50
90
 51
180
  0
ARC
  8
_0-1_
  6
CONTINUOUS
 62
    7
 10
307.65825627328655
 20
165.22556890122399
 40
0.5660000000000001
 50
0
 51
90
  0
ARC
  8
_0-1_
  6
CONTINUOUS
 62
    7
 10
308.60725627328657
 20
166.17456890122401
 40
1.7700000000000002
 50
347.52572631835937
 51
12.474273681640634
  0
ARC
  8
_0-1_
  6
CONTINUOUS
 62
    7
 10
308.60725627328657
 20
166.17456890122401
 40
1.7700000000000002
 50
77.52581787109375
 51
102.47418212890625
  0
ARC
  8
_0-1_
  6
CONTINUOUS
 62
    7
 10
308.60725627328657
 20
166.17456890122401
 40
1.7700000000000002
 50
167.52572631835937
 51
192.47427368164065
  0
ARC
  8
_0-1_
  6
CONTINUOUS
 62
    7
 10
308.60725627328657
 20
166.17456890122401
 40
1.7700000000000002
 50
257.52581787109375
 51
282.47418212890625
  0
ARC
  8
_0-1_
  6
CONTINUOUS
 62
    7
 10
397.90725627328823
 20
177.97456891176918
 40
0.3
 50
180
 51
270
  0
ARC
  8
_0-1_
  6
CONTINUOUS
 62
    7
 10
403.60725627328839
 20
189.17456891176911
 40
0.3
 50
134.99999999999977
 51
224.99999999999952
  0
LINE
  8
_0-1_
  6
CONTINUOUS
 62
    7
 10
403.39512423893245
 20
189.38670094612507
 11
403.48367787119753
 21
189.47525457839018
  0
ARC
  8
_0-1_
  6
CONTINUOUS
 62
    7
 10
403.27154583684154
 20
189.68738661274614
 40
0.3
 50
315.00000000000193
 51
7.9668064313888642
  0
LINE
  8
_0-1_
  6
CONTINUOUS
 62
    7
 10
403.39512423893245
 20
188.96243687741315
 11
403.48367787119753
 21
188.87388324514805
  0
ARC
  8
_0-1_
  6
CONTINUOUS
 62
    7
 10
403.27154583684154
 20
188.66175121079209
 40
0.3
 50
352.03319356861152
 51
44.999999999997357
  0
LINE
  8
_0-1_
  6
CONTINUOUS
 62
    7
 10
397.60725627328827
 20
177.97456891176918
 11
397.60725627328827
 21
185.54138848685221
  0
ARC
  8
_0-1_
  6
CONTINUOUS
 62
    7
 10
399.60725627328839
 20
189.17456891176911
 40
4
 50
7.9668064313885338
 51
237.66397400244051
  0
ARC
  8
_0-1_
  6
CONTINUOUS
 62
    7
 10
397.30725627328826
 20
185.54138848685221
 40
0.3
 50
0
 51
57.663974002440582
  0
LINE
  8
_0-1_
  6
CONTINUOUS
 62
    7
 10
401.60725627328827
 20
181.97456891176918
 11
401.60725627328827
 21
185.54138848685204
  0
ARC
  8
_0-1_
  6
CONTINUOUS
 62
    7
 10
399.60725627328839
 20
189.17456891176911
 40
4
 50
302.33602599755591
 51
352.03319356861147
  0
ARC
  8
_0-1_
  6
CONTINUOUS
 62
    7
 10
401.90725627328828
 20
185.54138848685204
 40
0.3
 50
122.33602599755508
 51
180
  0
ARC
  8
_0-1_
  6
CONTINUOUS
 62
    7
 10
401.90725627328828
 20
181.97456891176918
 40
0.3
 50
180
 51
270
  0
LINE
  8
_0-1_
  6
CONTINUOUS
 62
    7
 10
407.60725627328839
 20
143.97456891176918
 11
407.60725627328839
 21
180.67456891176917
  0
ARC
  8
_0-1_
  6
CONTINUOUS
 62
    7
 10
406.60725627328839
 20
180.67456891176917
 40
1
 50
0
 51
90
  0
LINE
  8
_0-1_
  6
CONTINUOUS
 62
    7
 10
402.60725627328839
 20
177.37456891176916
 11
402.60725627328839
 21
168.42309704919299
  0
ARC
  8
_0-1_
  6
CONTINUOUS
 62
    7
 10
402.90725627328834
 20
168.42309704919299
 40
0.3
 50
180
 51
224.99999999999801
  0
LINE
  8
_0-1_
  6
CONTINUOUS
 62
    7
 10
402.69512423893241
 20
168.21096501483706
 11
403.01938830764436
 21
167.8867009461251
  0
ARC
  8
_0-1_
  6
CONTINUOUS
 62
    7
 10
402.80725627328843
 20
167.67456891176917
 40
0.3
 50
315.00000000000387
 51
44.99999999999617
  0
LINE
  8
_0-1_
  6
CONTINUOUS
 62
    7
 10
402.69512423893241
 20
167.13817280870128
 11
403.01938830764436
 21
167.46243687741324
  0
ARC
  8
_0-1_
  6
CONTINUOUS
 62
    7
 10
402.90725627328845
 20
166.92604077434535
 40
0.3
 50
135.00000000000179
 51
180.00000000000003
  0
LINE
  8
_0-1_
  6
CONTINUOUS
 62
    7
 10
402.60725627328839
 20
166.92604077434535
 11
402.60725627328839
 21
152.42309704919299
  0
ARC
  8
_0-1_
  6
CONTINUOUS
 62
    7
 10
402.90725627328834
 20
152.42309704919299
 40
0.3
 50
180
 51
224.99999999999801
  0
LINE
  8
_0-1_
  6
CONTINUOUS
 62
    7
 10
402.69512423893241
 20
152.21096501483706
 11
403.01938830764436
 21
151.8867009461251
  0
ARC
  8
_0-1_
  6
CONTINUOUS
 62
    7
 10
402.80725627328843
 20
151.67456891176917
 40
0.3
 50
315.00000000000387
 51
44.99999999999617
  0
LINE
  8
_0-1_
  6
CONTINUOUS
 62
    7
 10
402.69512423893241
 20
151.13817280870128
 11
403.01938830764436
 21
151.46243687741324
  0
ARC
  8
_0-1_
  6
CONTINUOUS
 62
    7
 10
402.90725627328845
 20
150.92604077434535
 40
0.3
 50
135.00000000000179
 51
180.00000000000003
  0
LINE
  8
_0-1_
  6
CONTINUOUS
 62
    7
 10
402.60725627328839
 20
144.67456891176917
 11
402.60725627328839
 21
150.92604077434535
  0
ARC
  8
_0-1_
  6
CONTINUOUS
 62
    7
 10
403.60725627328839
 20
144.67456891176917
 40
1
 50
180
 51
270
  0
LINE
  8
_0-1_
  6
CONTINUOUS
 62
    7
 10
407.30725627328843
 20
143.67456891176917
 11
403.60725627328839
 21
143.67456891176917
  0
ARC
  8
_0-1_
  6
CONTINUOUS
 62
    7
 10
407.30725627328843
 20
143.97456891176918
 40
0.3
 50
270
 51
0
  0
LINE
  8
_0-1_
  6
CONTINUOUS
 62
    7
 10
401.90725627328828
 20
181.67456891176917
 11
406.60725627328839
 21
181.67456891176917
  0
ARC
  8
_0-1_
  6
CONTINUOUS
 62
    7
 10
402.30725627328837
 20
177.37456891176916
 40
0.3
 50
0
 51
90.000000000000014
  0
LINE
  8
_0-1_
  6
CONTINUOUS
 62
    7
 10
397.90725627328823
 20
177.67456891176917
 11
399.35872813586451
 21
177.67456891176917
  0
ARC
  8
_0-1_
  6
CONTINUOUS
 62
    7
 10
399.35872813586451
 20
177.97456891176918
 40
0.3
 50
270
 51
314.99999999999801
  0
LINE
  8
_0-1_
  6
CONTINUOUS
 62
    7
 10
399.57086017022044
 20
177.76243687741319
 11
399.8951242389324
 21
178.08670094612512
  0
ARC
  8
_0-1_
  6
CONTINUOUS
 62
    7
 10
400.10725627328833
 20
177.87456891176916
 40
0.3
 50
45.000000000003844
 51
134.99999999999619
  0
LINE
  8
_0-1_
  6
CONTINUOUS
 62
    7
 10
400.64365237635621
 20
177.76243687741319
 11
400.31938830764426
 21
178.08670094612512
  0
ARC
  8
_0-1_
  6
CONTINUOUS
 62
    7
 10
400.85578441071215
 20
177.97456891176918
 40
0.3
 50
225.00000000000179
 51
270
  0
LINE
  8
_0-1_
  6
CONTINUOUS
 62
    7
 10
402.30725627328837
 20
177.67456891176917
 11
400.85578441071215
 21
177.67456891176917
  0
LINE
  8
_0-1_
  6
CONTINUOUS
 62
    7
 10
286.10714527338575
 20
157.17456890122412
 11
285.60714527338575
 21
159.17456890122412
  0
LINE
  8
_0-1_
  6
CONTINUOUS
 62
    7
 10
284.10714527338575
 20
157.17456890122412
 11
284.60714527338575
 21
159.17456890122412
  0
LINE
  8
_0-1_
  6
CONTINUOUS
 62
    7
 10
284.60714527338575
 20
159.17456890122412
 11
285.60714527338575
 21
159.17456890122412
  0
LINE
  8
_0-1_
  6
CONTINUOUS
 62
    7
 10
289.10714527338575
 20
157.17456890122412
 11
288.60714527338575
 21
159.17456890122412
  0
LINE
  8
_0-1_
  6
CONTINUOUS
 62
    7
 10
286.10714527338575
 20
157.17456890122412
 11
287.10714527338575
 21
157.17456890122412
  0
LINE
  8
_0-1_
  6
CONTINUOUS
 62
    7
 10
287.10714527338575
 20
157.17456890122412
 11
287.60714527338575
 21
159.17456890122412
  0
LINE
  8
_0-1_
  6
CONTINUOUS
 62
    7
 10
287.60714527338575
 20
159.17456890122412
 11
288.60714527338575
 21
159.17456890122412
  0
LINE
  8
_0-1_
  6
CONTINUOUS
 62
    7
 10
292.10714527338575
 20
157.17456890122412
 11
291.60714527338575
 21
159.17456890122412
  0
LINE
  8
_0-1_
  6
CONTINUOUS
 62
    7
 10
289.10714527338575
 20
157.17456890122412
 11
290.10714527338575
 21
157.17456890122412
  0
LINE
  8
_0-1_
  6
CONTINUOUS
 62
    7
 10
290.10714527338575
 20
157.17456890122412
 11
290.60714527338575
 21
159.17456890122412
  0
LINE
  8
_0-1_
  6
CONTINUOUS
 62
    7
 10
290.60714527338575
 20
159.17456890122412
 11
291.60714527338575
 21
159.17456890122412
  0
LINE
  8
_0-1_
  6
CONTINUOUS
 62
    7
 10
295.10714527338575
 20
157.17456890122412
 11
294.60714527338575
 21
159.17456890122412
  0
LINE
  8
_0-1_
  6
CONTINUOUS
 62
    7
 10
292.10714527338575
 20
157.17456890122412
 11
293.10714527338575
 21
157.17456890122412
  0
LINE
  8
_0-1_
  6
CONTINUOUS
 62
    7
 10
293.10714527338575
 20
157.17456890122412
 11
293.60714527338575
 21
159.17456890122412
  0
LINE
  8
_0-1_
  6
CONTINUOUS
 62
    7
 10
293.60714527338575
 20
159.17456890122412
 11
294.60714527338575
 21
159.17456890122412
  0
LINE
  8
_0-1_
  6
CONTINUOUS
 62
    7
 10
298.10714527338575
 20
157.17456890122412
 11
297.60714527338575
 21
159.17456890122412
  0
LINE
  8
_0-1_
  6
CONTINUOUS
 62
    7
 10
295.10714527338575
 20
157.17456890122412
 11
296.10714527338575
 21
157.17456890122412
  0
LINE
  8
_0-1_
  6
CONTINUOUS
 62
    7
 10
296.10714527338575
 20
157.17456890122412
 11
296.60714527338575
 21
159.17456890122412
  0
LINE
  8
_0-1_
  6
CONTINUOUS
 62
    7
 10
296.60714527338575
 20
159.17456890122412
 11
297.60714527338575
 21
159.17456890122412
  0
LINE
  8
_0-1_
  6
CONTINUOUS
 62
    7
 10
283.6072562732885
 20
157.17456890122412
 11
284.10714527338575
 21
157.17456890122412
  0
LINE
  8
_0-1_
  6
CONTINUOUS
 62
    7
 10
283.6072562732885
 20
152.17456890122457
 11
298.60725627328827
 21
152.17456890122457
  0
LINE
  8
_0-1_
  6
CONTINUOUS
 62
    7
 10
298.10714527338575
 20
157.17456890122412
 11
298.60725627328827
 21
157.17456890122412
  0
CIRCLE
  8
_0-1_
  6
CONTINUOUS
 62
    7
 10
273.60725627328873
 20
294.29812121294202
 40
4.4999999999988063
  0
LINE
  8
_0-1_
  6
CONTINUOUS
 62
    7
 10
269.77343563543332
 20
291.94189131822867
 11
259.5374572750523
 21
292.29933955907313
  0
LINE
  8
_0-1_
  6
CONTINUOUS
 62
    7
 10
269.1778291498822
 20
291.47984596761387
 11
260.02000753152441
 21
291.79964414539495
  0
LINE
  8
_0-1_
  6
CONTINUOUS
 62
    7
 10
269.1778291498822
 20
291.47984596761387
 11
269.7734356354307
 21
291.94189131822867
  0
LINE
  8
_0-1_
  6
CONTINUOUS
 62
    7
 10
269.77343563543332
 20
296.65434966765656
 11
259.5374572750523
 21
296.2969014268121
  0
LINE
  8
_0-1_
  6
CONTINUOUS
 62
    7
 10
269.1778291498822
 20
297.11639501827136
 11
260.02000753152441
 21
296.79659684048983
  0
LINE
  8
_0-1_
  6
CONTINUOUS
 62
    7
 10
269.1778291498822
 20
297.11639501827136
 11
269.7734356354307
 21
296.65434966765656
  0
ARC
  8
_0-1_
  6
CONTINUOUS
 62
    7
 10
260.10725627328748
 20
294.29812121294248
 40
2.5001109999055302
 50
92.00000000000469
 51
267.99999999984283
  0
ARC
  8
_0-1_
  6
CONTINUOUS
 62
    7
 10
259.60725627328753
 20
294.29812121294248
 40
1.9999999999999716
 50
92.000001578169247
 51
267.99999986154063
  0
ARC
  8
_0-1_
  6
CONTINUOUS
 62
    7
 10
273.60725627328873
 20
294.29812121294202
 40
5.2500000000003411
 50
32.467038830311338
 51
147.53297442880447
  0
ARC
  8
_0-1_
  6
CONTINUOUS
 62
    7
 10
273.60725627328873
 20
294.29812121294202
 40
5.2500000000003411
 50
212.4670388302934
 51
327.53296116969153
  0
LINE
  8
_0-1_
  6
CONTINUOUS
 62
    7
 10
277.44107691114425
 20
291.94189131822867
 11
287.67705527152486
 21
292.29933955907313
  0
LINE
  8
_0-1_
  6
CONTINUOUS
 62
    7
 10
278.03668339669542
 20
291.47984596761387
 11
287.19450501505321
 21
291.79964414539495
  0
LINE
  8
_0-1_
  6
CONTINUOUS
 62
    7
 10
277.44107691114425
 20
296.65434966765656
 11
287.67705527152486
 21
296.2969014268121
  0
LINE
  8
_0-1_
  6
CONTINUOUS
 62
    7
 10
278.03668339669542
 20
297.11639501827136
 11
287.19450501505321
 21
296.79659684048983
  0
ARC
  8
_0-1_
  6
CONTINUOUS
 62
    7
 10
287.10725627328969
 20
294.29812121294248
 40
2.5001109999055302
 50
272.00000000015717
 51
87.99999999999531
  0
ARC
  8
_0-1_
  6
CONTINUOUS
 62
    7
 10
287.60725627329009
 20
294.29812121294248
 40
1.9999999999999716
 50
272.00000013845937
 51
87.999998421830753
  0
LINE
  8
_0-1_
  6
CONTINUOUS
 62
    7
 10
263.60725627328929
 20
273.7981212129435
 11
263.60725627328929
 21
291.67437465897427
  0
LINE
  8
_0-1_
  6
CONTINUOUS
 62
    7
 10
263.60725627328935
 20
296.92186632691067
 11
263.60725627328935
 21
314.79812121294361
  0
LINE
  8
_0-1_
  6
CONTINUOUS
 62
    7
 10
283.60725627328691
 20
314.79812121294361
 11
283.60725627328691
 21
296.92186632691073
  0
LINE
  8
_0-1_
  6
CONTINUOUS
 62
    7
 10
283.60725627328691
 20
291.67437465897422
 11
283.60725627328691
 21
273.7981212129435
  0
LINE
  8
_0-1_
  6
CONTINUOUS
 62
    7
 10
554.57049251773947
 20
143.67456891176917
 11
654.57049251773947
 21
143.67456891176917
  0
LINE
  8
_0-1_
  6
CONTINUOUS
 62
    7
 10
654.57049251773947
 20
143.67456891176917
 11
654.57049251773947
 21
181.67456891176917
  0
LINE
  8
_0-1_
  6
CONTINUOUS
 62
    7
 10
654.57049251773947
 20
181.67456891176917
 11
554.57049251773947
 21
181.67456891176917
  0
LINE
  8
_0-1_
  6
CONTINUOUS
 62
    7
 10
554.57049251773947
 20
181.67456891176917
 11
554.57049251773947
 21
143.67456891176917
  0
CIRCLE
  8
_0-1_
  6
CONTINUOUS
 62
    7
 10
564.57049251773947
 20
167.67456891176917
 40
4.5
  0
CIRCLE
  8
_0-1_
  6
CONTINUOUS
 62
    7
 10
644.57049251773947
 20
167.67456891176917
 40
4.5
  0
CIRCLE
  8
_0-1_
  6
CONTINUOUS
 62
    7
 10
564.57049251773947
 20
151.67456891176917
 40
3.5
  0
CIRCLE
  8
_0-1_
  6
CONTINUOUS
 62
    7
 10
644.57049251773947
 20
151.67456891176917
 40
3.5
  0
LINE
  8
_0-9__
  6
CONTINUOUS
 62
    7
 10
554.57049251773947
 20
193.17456891176917
 11
554.57049251773947
 21
181.67456891176917
  0
LINE
  8
_0-9__
  6
CONTINUOUS
 62
    7
 10
654.57049251773947
 20
193.17456891176917
 11
654.57049251773947
 21
181.67456891176917
  0
LINE
  8
_0-1_
  6
CONTINUOUS
 62
    7
 10
586.07049251773947
 20
185.67456891176917
 11
623.07049251773947
 21
185.67456891176917
  0
LINE
  8
_0-1_
  6
CONTINUOUS
 62
    7
 10
623.07049251773947
 20
197.67456891176917
 11
623.07049251773947
 21
185.67456891176917
  0
LINE
  8
_0-1_
  6
CONTINUOUS
 62
    7
 10
586.07049251773947
 20
197.67456891176917
 11
586.07049251773947
 21
185.67456891176917
  0
LINE
  8
_0-1_
  6
CONTINUOUS
 62
    7
 10
586.07049251773947
 20
197.67456891176917
 11
623.07049251773947
 21
197.67456891176917
  0
LINE
  8
_0-1_
  6
CONTINUOUS
 62
    7
 10
554.57049251773947
 20
185.71046729676917
 11
586.07049251773947
 21
185.71046729676917
  0
LINE
  8
_0-1_
  6
CONTINUOUS
 62
    7
 10
623.07049251773947
 20
185.71046729676917
 11
654.57049251773947
 21
185.71046729676917
  0
LINE
  8
_0-1_
  6
CENTER1
 62
    4
 10
552.4295626944778
 20
189.17456891176914
 11
657.0415225939646
 21
189.17456891176914
  0
LINE
  8
_0-9__
  6
CONTINUOUS
 62
    7
 10
554.57049251773947
 20
193.17456891176917
 11
586.07049251773947
 21
193.17456891176917
  0
LINE
  8
_0-9__
  6
CONTINUOUS
 62
    7
 10
623.07049251773947
 20
193.17456891176917
 11
654.57049251773947
 21
193.17456891176917
  0
LINE
  8
_0-1_
  6
CONTINUOUS
 62
    7
 10
586.07049251773947
 20
196.10277214176915
 11
623.07049251773947
 21
196.10277214176915
  0
POINT
  8
_0-9__
 62
    4
 10
564.57049251773947
 20
119.67456891176917
  0
POINT
  8
_0-9__
 62
    4
 10
644.57049251773947
 20
119.67456891176917
  0
LINE
  8
_0-9__
  6
CONTINUOUS
 62
    4
 10
564.57049251773947
 20
117.67456891176917
 11
564.57049251773947
 21
143.54956891176917
  0
LINE
  8
_0-9__
  6
CONTINUOUS
 62
    4
 10
644.57049251773947
 20
117.67456891176917
 11
644.57049251773947
 21
143.54956891176917
  0
LINE
  8
_0-9__
  6
CONTINUOUS
 62
    4
 10
564.57049251773947
 20
119.67456891176917
 11
644.57049251773947
 21
119.67456891176917
  0
TEXT
  8
_0-9__
 62
    3
 10
600.32049251773947
 20
120.67456891176917
 40
10
 41
0.8
 50
0
  1
80
  0
POINT
  8
_0-9__
 62
    4
 10
554.57049251773947
 20
103.67456891176917
  0
POINT
  8
_0-9__
 62
    4
 10
654.57049251773947
 20
103.67456891176917
  0
LINE
  8
_0-9__
  6
CONTINUOUS
 62
    4
 10
554.57049251773947
 20
101.67456891176917
 11
554.57049251773947
 21
141.67456891176917
  0
LINE
  8
_0-9__
  6
CONTINUOUS
 62
    4
 10
654.57049251773947
 20
101.67456891176917
 11
654.57049251773947
 21
141.67456891176917
  0
LINE
  8
_0-9__
  6
CONTINUOUS
 62
    4
 10
554.57049251773947
 20
103.67456891176917
 11
654.57049251773947
 21
103.67456891176917
  0
TEXT
  8
_0-9__
 62
    3
 10
598.07049251773947
 20
104.67456891176917
 40
10
 41
0.8
 50
0
  1
100
  0
POINT
  8
_0-9__
 62
    4
 10
538.57049251773947
 20
143.67456891176917
  0
POINT
  8
_0-9__
 62
    4
 10
538.57049251773947
 20
151.67456891176917
  0
LINE
  8
_0-9__
  6
CONTINUOUS
 62
    4
 10
536.57049251773947
 20
143.67456891176917
 11
552.57049251773947
 21
143.67456891176917
  0
LINE
  8
_0-9__
  6
CONTINUOUS
 62
    4
 10
536.57049251773947
 20
151.67456891176917
 11
556.44549251773947
 21
151.67456891176917
  0
LINE
  8
_0-9__
  6
CONTINUOUS
 62
    4
 10
538.57049251773947
 20
143.67456891176917
 11
538.57049251773947
 21
151.67456891176917
  0
TEXT
  8
_0-9__
 62
    3
 10
537.57049251773947
 20
145.67456891176917
 40
10
 41
0.8
 50
90
  1
8
  0
POINT
  8
_0-9__
 62
    4
 10
538.57049251773947
 20
167.67456891176914
  0
LINE
  8
_0-9__
  6
CONTINUOUS
 62
    4
 10
536.57049251773947
 20
167.67456891176914
 11
554.69499999999994
 21
167.67456891176914
  0
LINE
  8
_0-9__
  6
CONTINUOUS
 62
    4
 10
538.57049251773947
 20
151.67456891176917
 11
538.57049251773947
 21
167.67456891176914
  0
TEXT
  8
_0-9__
 62
    3
 10
537.57049251773947
 20
155.42456891176917
 40
10
 41
0.8
 50
90
  1
16
  0
POINT
  8
_0-9__
 62
    4
 10
538.57049251773947
 20
181.67456891176917
  0
LINE
  8
_0-9__
  6
CONTINUOUS
 62
    4
 10
536.57049251773947
 20
181.67456891176917
 11
552.57049251773947
 21
181.67456891176917
  0
LINE
  8
_0-9__
  6
CONTINUOUS
 62
    4
 10
538.57049251773947
 20
167.67456891176914
 11
538.57049251773947
 21
181.67456891176917
  0
TEXT
  8
_0-9__
 62
    3
 10
537.57049251773947
 20
170.42456891176917
 40
10
 41
0.8
 50
90
  1
14
  0
POINT
  8
_0-9__
 62
    4
 10
522.57049251773947
 20
143.67456891176917
  0
POINT
  8
_0-9__
 62
    4
 10
522.57049251773947
 20
181.67456891176917
  0
LINE
  8
_0-9__
  6
CONTINUOUS
 62
    4
 10
520.57049251773947
 20
143.67456891176917
 11
536.57049251773947
 21
143.67456891176917
  0
LINE
  8
_0-9__
  6
CONTINUOUS
 62
    4
 10
520.57049251773947
 20
181.67456891176917
 11
536.57049251773947
 21
181.67456891176917
  0
LINE
  8
_0-9__
  6
CONTINUOUS
 62
    4
 10
522.57049251773947
 20
143.67456891176917
 11
522.57049251773947
 21
181.67456891176917
  0
TEXT
  8
_0-9__
 62
    3
 10
521.57049251773947
 20
158.42456891176917
 40
10
 41
0.8
 50
90
  1
38
  0
POINT
  8
_0-9__
 62
    4
 10
522.57049251773947
 20
181.67456891176917
  0
LINE
  8
_0-5__
  6
CONTINUOUS
 62
    4
 10
647.83423119960696
 20
170.77263440760294
 11
651.40247350636002
 21
175.59628933310296
  0
LINE
  8
_0-5__
  6
CONTINUOUS
 62
    4
 10
647.83423119960696
 20
170.77263440760294
 11
652.83706931341203
 21
174.08497660113693
  0
LINE
  8
_0-5__
  6
CONTINUOUS
 62
    4
 10
647.83423119960696
 20
170.77263440760294
 11
672.50998766036901
 21
194.19580553935285
  0
LINE
  8
_0-5__
  6
CONTINUOUS
 62
    4
 10
672.50998766036901
 20
194.19580553935285
 11
705.00998766036901
 21
194.19580553935285
  0
TEXT
  8
_0-5__
 62
    3
 10
675.50998766036901
 20
195.79580553935284
 40
10
 41
0.8
 50
0
  1
2-φ9 
  0
LINE
  8
_0-5__
  6
CONTINUOUS
 62
    4
 10
646.93914550390605
 20
149.09784947979296
 11
651.70504914738103
 21
145.45283062372195
  0
LINE
  8
_0-5__
  6
CONTINUOUS
 62
    4
 10
646.93914550390605
 20
149.09784947979296
 11
650.17096011747799
 21
144.04261711089995
  0
LINE
  8
_0-5__
  6
CONTINUOUS
 62
    4
 10
646.93914550390605
 20
149.09784947979296
 11
667.70038677883201
 21
126.51290599609996
  0
LINE
  8
_0-5__
  6
CONTINUOUS
 62
    4
 10
667.70038677883201
 20
126.51290599609996
 11
700.20038677883201
 21
126.51290599609996
  0
TEXT
  8
_0-5__
 62
    3
 10
670.70038677883201
 20
128.11290599609995
 40
10
 41
0.8
 50
0
  1
2-φ7 
  0
POINT
  8
_0-9__
 62
    4
 10
435.31166521647737
 20
143.67456891176917
  0
POINT
  8
_0-9__
 62
    4
 10
435.31166521647742
 20
181.67456891176917
  0
LINE
  8
_0-9__
  6
CONTINUOUS
 62
    4
 10
437.31166521647742
 20
143.67456891176917
 11
409.30725627328843
 21
143.67456891176917
  0
LINE
  8
_0-9__
  6
CONTINUOUS
 62
    4
 10
437.31166521647742
 20
181.67456891176917
 11
408.60725627328839
 21
181.67456891176917
  0
LINE
  8
_0-9__
  6
CONTINUOUS
 62
    4
 10
435.31166521647737
 20
143.67456891176917
 11
435.31166521647742
 21
181.67456891176917
  0
TEXT
  8
_0-9__
 62
    3
 10
434.31166521647742
 20
158.42456891176917
 40
10
 41
0.8
 50
90
  1
38
  0
POINT
  8
_0-9__
 62
    4
 10
159.60725627328782
 20
275.79812121294384
  0
POINT
  8
_0-9__
 62
    4
 10
159.60725627328782
 20
312.79812121294333
  0
LINE
  8
_0-9__
  6
CONTINUOUS
 62
    4
 10
157.60725627328782
 20
275.79812121294384
 11
173.60725627328782
 21
275.79812121294384
  0
LINE
  8
_0-9__
  6
CONTINUOUS
 62
    4
 10
157.60725627328782
 20
312.79812121294333
 11
173.60725627328785
 21
312.79812121294333
  0
LINE
  8
_0-9__
  6
CONTINUOUS
 62
    4
 10
159.60725627328782
 20
275.79812121294384
 11
159.60725627328782
 21
312.79812121294333
  0
TEXT
  8
_0-9__
 62
    3
 10
158.60725627328782
 20
290.04812121294361
 40
10
 41
0.8
 50
90
  1
37
  0
POINT
  8
_0-9__
 62
    4
 10
175.60725627328782
 20
103.67456891176917
  0
POINT
  8
_0-9__
 62
    4
 10
361.60725627328782
 20
103.67456891176917
  0
LINE
  8
_0-9__
  6
CONTINUOUS
 62
    4
 10
175.60725627328782
 20
101.67456891176917
 11
175.60725627328782
 21
170.57456889905021
  0
LINE
  8
_0-9__
  6
CONTINUOUS
 62
    4
 10
361.60725627328782
 20
101.67456891176917
 11
361.60725627328782
 21
169.97456890112545
  0
LINE
  8
_0-9__
  6
CONTINUOUS
 62
    4
 10
175.60725627328782
 20
103.67456891176917
 11
361.60725627328782
 21
103.67456891176917
  0
TEXT
  8
_0-9__
 62
    3
 10
262.10725627328782
 20
104.67456891176917
 40
10
 41
0.8
 50
0
  1
186
  0
POINT
  8
_0-9__
 62
    4
 10
361.60725627328782
 20
119.67456891176917
  0
POINT
  8
_0-9__
 62
    4
 10
402.60725627328839
 20
119.67456891176917
  0
LINE
  8
_0-9__
  6
CONTINUOUS
 62
    4
 10
402.60725627328839
 20
117.67456891176917
 11
402.60725627328839
 21
142.67456891176917
  0
POINT
  8
_0-9__
 62
    4
 10
407.60725627328844
 20
119.67456891176917
  0
LINE
  8
_0-9__
  6
CONTINUOUS
 62
    4
 10
402.60725627328839
 20
119.67456891176917
 11
407.60725627328844
 21
119.67456891176917
  0
TEXT
  8
_0-9__
 62
    3
 10
403.10725627328839
 20
120.67456891176917
 40
10
 41
0.8
 50
0
  1
5
  0
POINT
  8
_0-9__
 62
    4
 10
175.60725627328782
 20
119.67456891176917
  0
POINT
  8
_0-9__
 62
    4
 10
263.60725627328839
 20
119.67456891176917
  0
LINE
  8
_0-9__
  6
CONTINUOUS
 62
    4
 10
263.60725627328839
 20
117.67456891176917
 11
263.60725627328839
 21
143.27456921517754
  0
LINE
  8
_0-9__
  6
CONTINUOUS
 62
    4
 10
175.60725627328782
 20
119.67456891176917
 11
263.60725627328839
 21
119.67456891176917
  0
TEXT
  8
_0-9__
 62
    3
 10
215.3572562732881
 20
120.67456891176917
 40
10
 41
0.8
 50
0
  1
88
  0
POINT
  8
_0-9__
 62
    4
 10
318.60725627328816
 20
119.67456891176917
  0
LINE
  8
_0-9__
  6
CONTINUOUS
 62
    4
 10
318.60725627328816
 20
117.67456891176917
 11
318.60725627328816
 21
148.67456890122386
  0
LINE
  8
_0-9__
  6
CONTINUOUS
 62
    4
 10
263.60725627328839
 20
119.67456891176917
 11
318.60725627328816
 21
119.67456891176917
  0
TEXT
  8
_0-9__
 62
    3
 10
286.85725627328827
 20
120.67456891176917
 40
10
 41
0.8
 50
0
  1
55
  0
POINT
  8
_0-9__
 62
    4
 10
361.60725627328782
 20
119.67456891176917
  0
LINE
  8
_0-9__
  6
CONTINUOUS
 62
    4
 10
318.60725627328816
 20
119.67456891176917
 11
361.60725627328782
 21
119.67456891176917
  0
TEXT
  8
_0-9__
 62
    3
 10
335.85725627328799
 20
120.67456891176917
 40
10
 41
0.8
 50
0
  1
43
  0
LINE
  8
_0-1_
  6
DASHED1
 62
    3
 10
402.60725627328839
 20
316.67450724315262
 11
402.60725627328839
 21
344.29812121294367
  0
LINE
  8
_0-1_
  6
DASHED1
 62
    3
 10
402.60725627328839
 20
244.2981212129439
 11
402.60725627328839
 21
271.3380569938314
  0
POINT
  8
_0-9__
 62
    4
 10
435.31166521647742
 20
244.29812121294304
  0
POINT
  8
_0-9__
 62
    4
 10
435.31166521647742
 20
344.29812121294367
  0
LINE
  8
_0-9__
  6
CONTINUOUS
 62
    4
 10
437.31166521647742
 20
244.29812121294304
 11
409.60725627328839
 21
244.29812121294304
  0
LINE
  8
_0-9__
  6
CONTINUOUS
 62
    4
 10
437.31166521647742
 20
344.29812121294367
 11
409.60725627328844
 21
344.29812121294367
  0
LINE
  8
_0-9__
  6
CONTINUOUS
 62
    4
 10
435.31166521647742
 20
244.29812121294304
 11
435.31166521647742
 21
344.29812121294367
  0
TEXT
  8
_0-9__
 62
    3
 10
434.31166521647742
 20
287.79812121294333
 40
10
 41
0.8
 50
90
  1
100
  0
LINE
  8
_0-1_
  6
PHANTOM2
 62
    5
 10
227.87832408759698
 20
190.17456890129324
 11
230.10725615558869
 21
190.17456890129324
  0
LINE
  8
_0-1_
  6
PHANTOM2
 62
    5
 10
159.36410927318957
 20
177.31771464935784
 11
170.86410915548981
 21
188.817714531658
  0
LINE
  8
_0-1_
  6
PHANTOM2
 62
    5
 10
170.86410915548981
 20
190.17456890135094
 11
170.86410915548981
 21
188.817714531658
  0
ARC
  8
_0-1_
  6
PHANTOM2
 62
    5
 10
168.63517708749811
 20
185.17456890129324
 40
5
 50
90
 51
134.99999999999991
  0
LINE
  8
_0-1_
  6
PHANTOM2
 62
    5
 10
165.0996431815654
 20
188.71010280722601
 11
155.36410927318957
 21
178.97456889885021
  0
LINE
  8
_0-1_
  6
PHANTOM2
 62
    5
 10
159.36410927318957
 20
177.31771464935784
 11
159.36410927318957
 21
174.2314231485426
  0
LINE
  8
_0-1_
  6
PHANTOM2
 62
    5
 10
165.02477044279567
 20
162.91390772944419
 11
155.36410927318957
 21
172.57456889905021
  0
LINE
  8
_0-1_
  6
PHANTOM2
 62
    5
 10
159.36410927318957
 20
174.2314231485426
 11
167.12096452050821
 21
166.47456790122399
  0
LINE
  8
_0-1_
  6
PHANTOM2
 62
    5
 10
155.36410927318957
 20
178.97456889885021
 11
155.36410927318957
 21
172.57456889905021
  0
LINE
  8
_0-1_
  6
PHANTOM2
 62
    5
 10
168.63517708749811
 20
190.17456890129324
 11
170.86410915548981
 21
190.17456890129324
  0
POINT
  8
_0-9__
 62
    4
 10
170.86410915548981
 20
209.16088288278061
  0
POINT
  8
_0-9__
 62
    4
 10
230.10725615558869
 20
209.16088288278061
  0
LINE
  8
_0-9__
  6
CONTINUOUS
 62
    4
 10
170.86410915548981
 20
211.16088288278061
 11
170.86410915548981
 21
192.17456890135094
  0
LINE
  8
_0-9__
  6
CONTINUOUS
 62
    4
 10
230.10725615558869
 20
211.16088288278061
 11
230.10725615558869
 21
192.17456890135094
  0
POINT
  8
_0-9__
 62
    4
 10
136.75984114444498
 20
152.17456890122457
  0
POINT
  8
_0-9__
 62
    4
 10
136.75984114444498
 20
190.17456890129324
  0
LINE
  8
_0-9__
  6
CONTINUOUS
 62
    4
 10
134.75984114444498
 20
152.17456890122457
 11
203.70725612893932
 21
152.17456890122457
  0
LINE
  8
_0-9__
  6
CONTINUOUS
 62
    4
 10
134.75984114444498
 20
190.17456890129324
 11
186.87832408759635
 21
190.17456890129324
  0
LINE
  8
_0-9__
  6
CONTINUOUS
 62
    4
 10
136.75984114444498
 20
152.17456890122457
 11
136.75984114444498
 21
190.17456890129324
  0
TEXT
  8
_0-9__
 62
    3
 10
135.75984114444498
 20
166.92456890125891
 40
10
 41
0.8
 50
90
  1
38
  0
POINT
  8
_0-9__
 62
    4
 10
136.75984114444498
 20
145.27456921517754
  0
LINE
  8
_0-9__
  6
CONTINUOUS
 62
    4
 10
134.75984114444498
 20
145.27456921517754
 11
261.60725627328839
 21
145.27456921517754
  0
LINE
  8
_0-9__
  6
CONTINUOUS
 62
    4
 10
136.75984114444498
 20
145.27456921517754
 11
136.75984114444498
 21
152.17456890122457
  0
TEXT
  8
_0-9__
 62
    3
 10
135.75984114444498
 20
142.22456905820107
 40
10
 41
0.8
 50
90
  1
6.9
  0
LINE
  8
_0-9__
  6
CONTINUOUS
 62
    4
 10
170.86410915548981
 20
209.16088288278061
 11
230.10725615558869
 21
209.16088288278061
  0
LINE
  8
_0-1_
  6
PHANTOM2
 62
    5
 10
175.23517646219216
 20
166.47456790122399
 11
167.12096452050821
 21
166.47456790122399
  0
ARC
  8
_0-1_
  6
PHANTOM2
 62
    5
 10
166.08543061457544
 20
163.97456790122399
 40
1.5
 50
225
 51
270
  0
LINE
  8
_0-1_
  6
PHANTOM2
 62
    5
 10
166.08543061457544
 20
162.47456790122399
 11
172.16410871412165
 21
162.47456790122399
  0
LINE
  8
_0-1_
  6
PHANTOM2
 62
    5
 10
182.53517646485739
 20
159.17456890122412
 11
175.23517646219216
 21
166.47456790122399
  0
TEXT
  8
_0-9__
 62
    3
 10
182.73568265553925
 20
210.16088288278061
 40
10
 41
0.8
 50
0
  1
調整幅59
  0
LINE
  8
_0-1_
  6
PHANTOM2
 62
    5
 10
391.10725527338747
 20
162.47456790122399
 11
386.80725685434942
 21
162.47456790122399
  0
LINE
  8
_0-1_
  6
PHANTOM2
 62
    5
 10
390.86461427339151
 20
166.47456790122399
 11
385.15040227338733
 21
166.47456790122399
  0
ARC
  8
_0-1_
  6
PHANTOM2
 62
    5
 10
399.60725627328844
 20
174.17456890128128
 40
1
 50
0
 51
90
  0
LINE
  8
_0-1_
  6
PHANTOM2
 62
    5
 10
399.60725627328844
 20
175.17456890128128
 11
397.60725627328844
 21
175.17456890128128
  0
LINE
  8
_0-1_
  6
PHANTOM2
 62
    5
 10
397.60725627328844
 20
173.2172099011259
 11
397.60725627328844
 21
175.17456890128128
  0
LINE
  8
_0-1_
  6
PHANTOM2
 62
    5
 10
390.86461427339151
 20
166.47456790122399
 11
397.60725627328844
 21
173.2172099011259
  0
LINE
  8
_0-1_
  6
PHANTOM2
 62
    5
 10
400.60725627328844
 20
174.17456890128128
 11
400.60725627328844
 21
171.97456890112545
  0
LINE
  8
_0-1_
  6
PHANTOM2
 62
    5
 10
400.60725627328844
 20
171.97456890112545
 11
391.10725527338747
 21
162.47456790122399
  0
LINE
  8
_0-1_
  6
PHANTOM2
 62
    5
 10
378.6285768794092
 20
154.29588909342266
 11
386.80725685434942
 21
162.47456790122399
  0
LINE
  8
_0-1_
  6
PHANTOM2
 62
    5
 10
385.15040227338733
 20
166.47456790122399
 11
377.85040327338703
 21
159.17456890122412
  0
LINE
  8
_0-1_
  6
PHANTOM2
 62
    5
 10
374.60714527338638
 20
159.17456890122412
 11
377.85040327338703
 21
159.17456890122412
  0
LINE
  8
_0-1_
  6
PHANTOM2
 62
    5
 10
373.5072563844879
 20
152.17456890122457
 11
378.6285768794092
 21
154.29588909342266
  0
LINE
  8
_0-1_
  6
PHANTOM2
 62
    5
 10
331.62146727329264
 20
166.47456790122399
 11
325.90725527328846
 21
166.47456790122399
  0
LINE
  8
_0-1_
  6
PHANTOM2
 62
    5
 10
331.62146727329264
 20
166.47456790122399
 11
338.36410927318957
 21
173.2172099011259
  0
LINE
  8
_0-1_
  6
PHANTOM2
 62
    5
 10
338.36410927318957
 20
173.2172099011259
 11
338.36410927318957
 21
175.17456890128128
  0
LINE
  8
_0-1_
  6
PHANTOM2
 62
    5
 10
340.36410927318957
 20
175.17456890128128
 11
338.36410927318957
 21
175.17456890128128
  0
ARC
  8
_0-1_
  6
PHANTOM2
 62
    5
 10
340.36410927318957
 20
174.17456890128128
 40
1
 50
0
 51
90
  0
LINE
  8
_0-1_
  6
PHANTOM2
 62
    5
 10
341.36410927318957
 20
174.17456890128128
 11
341.36410927318957
 21
171.97456890112545
  0
LINE
  8
_0-1_
  6
PHANTOM2
 62
    5
 10
341.36410927318957
 20
171.97456890112545
 11
331.86410827328859
 21
162.47456790122399
  0
LINE
  8
_0-1_
  6
PHANTOM2
 62
    5
 10
331.86410827328859
 20
162.47456790122399
 11
327.56410985425055
 21
162.47456790122399
  0
LINE
  8
_0-1_
  6
PHANTOM2
 62
    5
 10
325.24047108436787
 20
160.15092946293629
 11
327.56410985425055
 21
162.47456790122399
  0
LINE
  8
_0-1_
  6
PHANTOM2
 62
    5
 10
325.90725527328846
 20
166.47456790122399
 11
319.62925343640961
 21
160.19656606434552
  0
LINE
  8
_0-1_
  6
PHANTOM2
 62
    5
 10
234.47832346229103
 20
166.47456790122399
 11
226.36411152060708
 21
166.47456790122399
  0
LINE
  8
_0-1_
  6
PHANTOM2
 62
    5
 10
239.6168812128189
 20
161.33601085648431
 11
234.47832346229103
 21
166.47456790122399
  0
TEXT
  8
_0-9__
 62
    3
 10
373.60725627328816
 20
104.67456891176917
 40
10
 41
0.8
 50
0
  1
7～66
  0
LINE
  8
_0-1_
  6
CENTER1
 62
    4
 10
604.57049251773947
 20
205.14057031740839
 11
604.57049251773947
 21
140.43484253802475
  0
POINT
  8
_0-9__
 62
    4
 10
522.57049251773947
 20
181.67456891176917
  0
POINT
  8
_0-9__
 62
    4
 10
522.57049251773947
 20
197.67456891176917
  0
LINE
  8
_0-9__
  6
CONTINUOUS
 62
    4
 10
520.57049251773947
 20
197.67456891176917
 11
584.07049251773947
 21
197.67456891176917
  0
LINE
  8
_0-9__
  6
CONTINUOUS
 62
    4
 10
522.57049251773947
 20
181.67456891176917
 11
522.57049251773947
 21
197.67456891176917
  0
TEXT
  8
_0-9__
 62
    3
 10
521.57049251773947
 20
185.42456891176917
 40
10
 41
0.8
 50
90
  1
16
  0
POINT
  8
_0-9__
 62
    4
 10
435.31166521647742
 20
181.67456891176917
  0
POINT
  8
_0-9__
 62
    4
 10
435.31166521647742
 20
197.67456891176911
  0
LINE
  8
_0-9__
  6
CONTINUOUS
 62
    4
 10
437.31166521647742
 20
197.67456891176911
 11
405.30725627328843
 21
197.67456891176911
  0
LINE
  8
_0-9__
  6
CONTINUOUS
 62
    4
 10
435.31166521647742
 20
181.67456891176917
 11
435.31166521647742
 21
197.67456891176911
  0
TEXT
  8
_0-9__
 62
    3
 10
434.31166521647742
 20
185.42456891176914
 40
10
 41
0.8
 50
90
  1
16
  0
LINE
  8
_0-1_
  6
CONTINUOUS
 62
  136
 10
398.98299220419244
 20
312.79812121294333
 11
398.98299220419244
 21
275.79812121294378
  0
LINE
  8
_0-1_
  6
CONTINUOUS
 62
  136
 10
400.23152034237734
 20
312.79812121294327
 11
400.23152034237734
 21
275.79812121294378
  0
LINE
  8
_0-1_
  6
CONTINUOUS
 62
    7
 10
392.19105778622742
 20
178.17456891174601
 11
392.19105778622844
 21
186.17456891174606
  0
LINE
  8
_0-1_
  6
CONTINUOUS
 62
    7
 10
392.19105778622838
 20
186.17456891174595
 11
391.76305778622839
 21
186.17456891174595
  0
LINE
  8
_0-1_
  6
CONTINUOUS
 62
    7
 10
392.19105778622838
 20
178.17456891174595
 11
391.76305778622839
 21
178.17456891174595
  0
ARC
  8
_0-1_
  6
CONTINUOUS
 62
    7
 10
395.39105778622832
 20
182.17456891174595
 40
5.4000000000000012
 50
132.20544433593747
 51
227.79454040527341
  0
LINE
  8
_0-1_
  6
CONTINUOUS
 62
    7
 10
393.60725627328827
 20
180.17456891174595
 11
392.19105778622838
 21
180.17456891174595
  0
LINE
  8
_0-1_
  6
CONTINUOUS
 62
    6
 10
393.60725627328827
 20
180.52456891174594
 11
392.19105778622838
 21
180.52456891174594
  0
LINE
  8
_0-1_
  6
CONTINUOUS
 62
    6
 10
393.60241055251259
 20
183.82456891174596
 11
392.19105778622838
 21
183.82456891174596
  0
LINE
  8
_0-1_
  6
CONTINUOUS
 62
    7
 10
393.36225827496048
 20
184.17456891174595
 11
392.19105778622838
 21
184.17456891174595
  0
LINE
  8
_0-1_
  6
CONTINUOUS
 62
    7
 10
392.62137765997943
 20
185.17456891175505
 11
392.19105778622833
 21
185.17456891175902
  0
LINE
  8
_0-1_
  6
CONTINUOUS
 62
    7
 10
390.90106892211634
 20
185.17456891177096
 11
378.10725627349677
 21
185.17456891188925
  0
LINE
  8
_0-1_
  6
CONTINUOUS
 62
    5
 10
377.60725627328435
 20
184.67456891189397
 11
390.60461860873352
 21
184.67456891177443
  0
LINE
  8
_0-1_
  6
CONTINUOUS
 62
    5
 10
392.19105778622827
 20
184.67456891175982
 11
392.93249035980085
 21
184.674568911753
  0
LINE
  8
_0-1_
  6
CONTINUOUS
 62
    5
 10
377.60725627329253
 20
179.67456891189397
 11
390.60461860870384
 21
179.67456891177426
  0
LINE
  8
_0-1_
  6
CONTINUOUS
 62
    5
 10
392.19105778622759
 20
179.67456891175965
 11
393.60725627328844
 21
179.67456891174663
  0
LINE
  8
_0-1_
  6
CONTINUOUS
 62
    7
 10
393.60725627328844
 20
179.17456891174615
 11
392.19105778622753
 21
179.17456891175925
  0
LINE
  8
_0-1_
  6
CONTINUOUS
 62
    7
 10
390.9010689220828
 20
179.17456891177113
 11
378.10725627329714
 21
179.17456891188931
  0
LINE
  8
_0-1_
  6
CENTER1
 62
    4
 10
376.69777405566276
 20
182.17456891190241
 11
406.73003980785984
 21
182.1745689116247
  0
LINE
  8
_0-1_
  6
CONTINUOUS
 62
    7
 10
405.6910577862281
 20
184.17456891174595
 11
401.60725627328827
 21
184.17456891174595
  0
LINE
  8
_0-1_
  6
CONTINUOUS
 62
    7
 10
406.1910577862281
 20
183.67456891174595
 11
405.6910577862281
 21
184.17456891174595
  0
LINE
  8
_0-1_
  6
CONTINUOUS
 62
    7
 10
406.1910577862281
 20
183.67456891174595
 11
406.1910577862281
 21
181.67456891176917
  0
LINE
  8
_0-1_
  6
CONTINUOUS
 62
    7
 10
405.6910577862281
 20
181.67456891176917
 11
405.6910577862281
 21
184.17456891174595
  0
LINE
  8
_0-1_
  6
CONTINUOUS
 62
    6
 10
406.04105778622807
 20
183.82456891174596
 11
401.60725627328827
 21
183.82456891174596
  0
LINE
  8
_1-0_
  6
CENTER1
 62
    4
 10
319.35852731841271
 20
478.92277413257705
 11
319.35852731841271
 21
524.91677319533892
  0
LINE
  8
_1-0_
  6
CENTER1
 62
    4
 10
439.46538169353602
 20
478.92277413257705
 11
439.46538169353602
 21
524.91677319533892
  0
LINE
  8
_1-0_
  6
CENTER1
 62
    4
 10
559.57223606865932
 20
478.92277413257705
 11
559.57223606865932
 21
524.91677319533892
  0
ENDSEC
  0
EOF
