  0
SECTION
  2
HEADER
  9
$ACADVER
  1
AC1009
  9
$INSBASE
 10
0
 20
0
 30
0
  9
$EXTMIN
 10
0
 20
0
  9
$EXTMAX
 10
420
 20
297
  9
$LIMMIN
 10
0
 20
0
  9
$LIMMAX
 10
420
 20
297
  9
$LTSCALE
 40
1
  0
ENDSEC
  0
SECTION
  2
TABLES
  0
TABLE
  2
LTYPE
 70
     9
  0
LTYPE
  2
CONTINUOUS
 70
    64
  3
実線
 72
    65
 73
     0
 40
0.0
  0
LTYPE
  2
DASHED1
 70
    64
  3
--  --  --  --  --  --  --  --  
 72
    65
 73
     2
 40
2.5
 49
1.25
 49
-1.25
  0
LTYPE
  2
DASHED2
 70
    64
  3
----    ----    ----    ----    
 72
    65
 73
     2
 40
5.0
 49
2.5
 49
-2.5
  0
LTYPE
  2
DASHED3
 70
    64
  3
------  ------  ------  ------  
 72
    65
 73
     2
 40
5.0
 49
3.75
 49
-1.25
  0
LTYPE
  2
CENTER1
 70
    64
  3
----- - ----- - ----- - ----- - 
 72
    65
 73
     4
 40
10.0
 49
6.25
 49
-1.25
 49
1.25
 49
-1.25
  0
LTYPE
  2
CENTER2
 70
    64
  3
----------  --  ----------  --  
 72
    65
 73
     4
 40
20.0
 49
12.5
 49
-2.5
 49
2.5
 49
-2.5
  0
LTYPE
  2
PHANTOM1
 70
    64
  3
--- - - --- - - --- - - --- - - 
 72
    65
 73
     6
 40
10.0
 49
3.25
 49
-1.25
 49
1.25
 49
-1.25
 49
1.25
 49
-1.25
  0
LTYPE
  2
PHANTOM2
 70
    64
  3
--------  -  -  --------  -  -  
 72
    65
 73
     6
 40
20.0
 49
10.0
 49
-2.5
 49
1.25
 49
-2.5
 49
1.25
 49
-2.5
  0
LTYPE
  2
DOT
 70
    64
  3
-   -   -   -   -   -   -   -   
 72
    65
 73
     2
 40
2.5
 49
0.625
 49
-1.875
  0
LTYPE
  2
DUMMY
 70
    64
  3
ダミー
 72
    65
 73
     0
 40
0.0
  0
LTYPE
  2
RAND1
 70
    64
  3
ランダム線1
 72
    65
 73
     4
 40
10.0
 49
1.0
 49
-2.0
 49
3.0
 49
-4.0
  0
LTYPE
  2
RAND2
 70
    64
  3
ランダム線2
 72
    65
 73
     4
 40
14.0
 49
2.0
 49
-3.0
 49
4.0
 49
-5.0
  0
LTYPE
  2
RAND3
 70
    64
  3
ランダム線3
 72
    65
 73
     4
 40
18.0
 49
3.0
 49
-4.0
 49
5.0
 49
-6.0
  0
LTYPE
  2
RAND4
 70
    64
  3
ランダム線4
 72
    65
 73
     4
 40
22.0
 49
4.0
 49
-5.0
 49
6.0
 49
-7.0
  0
LTYPE
  2
RAND5
 70
    64
  3
ランダム線5
 72
    65
 73
     4
 40
26.0
 49
5.0
 49
-6.0
 49
7.0
 49
-8.0
  0
LTYPE
  2
LONG1
 70
    64
  3
----------  --  ----------  --  
 72
    65
 73
     4
 40
40.0
 49
32.5
 49
-2.5
 49
2.5
 49
-2.5
  0
LTYPE
  2
LONG2
 70
    64
  3
--------  -  -  --------  -  -  
 72
    65
 73
     6
 40
40.0
 49
30.0
 49
-2.5
 49
1.25
 49
-2.5
 49
1.25
 49
-2.5
  0
LTYPE
  2
LONG3
 70
    64
  3
+++++++++++++++..+++++++++++++++
 72
    65
 73
     2
 40
40.0
 49
37.5
 49
-2.5
  0
LTYPE
  2
LONG4
 70
    64
  3
+++++++++++++++..+++++++++++++++
 72
    65
 73
     2
 40
80.0
 49
75.0
 49
-5.0
  0
LTYPE
  2
LONG5
 70
    64
  3
----------  --  ----------  --  
 72
    65
 73
     4
 40
60.0
 49
37.5
 49
-7.5
 49
7.5
 49
-7.5
  0
LTYPE
  2
dashed
 70
   64
  3
-------   -------------   ------
 72
   65
 73
    2
 40
7.5
 49
6
 49
-1.5
  0
LTYPE
  2
dashed_spaced
 70
   64
  3
----        --------        ----
 72
   65
 73
    2
 40
12
 49
6
 49
-6
  0
LTYPE
  2
long_dashed_dotted
 70
   64
  3
------------- --- --------------
 72
   65
 73
    4
 40
15.25
 49
12
 49
-1.5
 49
0.25
 49
-1.5
  0
LTYPE
  2
long_dashed_double-dotted
 70
   64
  3
----------- --- --- ------------
 72
   65
 73
    6
 40
17
 49
12
 49
-1.5
 49
0.25
 49
-1.5
 49
0.25
 49
-1.5
  0
LTYPE
  2
long_dashed_triplicate-dotted
 70
   64
  3
--------- --- --- --- ----------
 72
   65
 73
    8
 40
18.75
 49
12
 49
-1.5
 49
0.25
 49
-1.5
 49
0.25
 49
-1.5
 49
0.25
 49
-1.5
  0
LTYPE
  2
dotted
 70
   64
  3
   -       -       -       -    
 72
   65
 73
    2
 40
1.75
 49
0.25
 49
-1.5
  0
LTYPE
  2
chain
 70
   64
  3
-------------- -- --------------
 72
   65
 73
    4
 40
18.5
 49
12
 49
-1.5
 49
3.5
 49
-1.5
  0
LTYPE
  2
chain_double_dash
 70
   64
  3
------------ -- -- -------------
 72
   65
 73
    6
 40
23.5
 49
12
 49
-1.5
 49
3.5
 49
-1.5
 49
3.5
 49
-1.5
  0
LTYPE
  2
dashed_dotted
 70
   64
  3
-----------     -     ----------
 72
   65
 73
    4
 40
9.25
 49
6
 49
-1.5
 49
0.25
 49
-1.5
  0
LTYPE
  2
double-dashed_dotted
 70
   64
  3
------   -----------   -   -----
 72
   65
 73
    6
 40
16.75
 49
6
 49
-1.5
 49
6
 49
-1.5
 49
0.25
 49
-1.5
  0
LTYPE
  2
dashed_double-dotted
 70
   64
  3
---------    -    -    ---------
 72
   65
 73
    6
 40
11
 49
6
 49
-1.5
 49
0.25
 49
-1.5
 49
0.25
 49
-1.5
  0
LTYPE
  2
double-dashed_double-dotted
 70
   64
  3
-----   ---------   -   -   ----
 72
   65
 73
    8
 40
18.5
 49
6
 49
-1.5
 49
6
 49
-1.5
 49
0.25
 49
-1.5
 49
0.25
 49
-1.5
  0
LTYPE
  2
dashed_triplicate-dotted
 70
   64
  3
-------    -    -    -    ------
 72
   65
 73
    8
 40
12.75
 49
6
 49
-1.5
 49
0.25
 49
-1.5
 49
0.25
 49
-1.5
 49
0.25
 49
-1.5
  0
LTYPE
  2
double-dashed_triplicate-dotted
 70
   64
  3
-----  ---------  -  -  -  -----
 72
   65
 73
   10
 40
20.25
 49
6
 49
-1.5
 49
6
 49
-1.5
 49
0.25
 49
-1.5
 49
0.25
 49
-1.5
 49
0.25
 49
-1.5
  0
LTYPE
  2
undefined
 70
   64
  3
--------------------------------
 72
   65
 73
    0
 40
0
  0
ENDTAB
  0
TABLE
  2
STYLE
  5
3
100
AcDbSymbolTable
 70
     1
  0
STYLE
  5
10
100
AcDbSymbolTableRecord
100
AcDbTextStyleTableRecord
  2
STANDARD
 70
     0
 40
0.0
 41
1.0
 50
0.0
 71
     0
 42
0.2
  3
txt
  4
bigfont.shx
  0
STYLE
  5
26
100
AcDbSymbolTableRecord
100
AcDbTextStyleTableRecord
  2
TATEGAKI
 70
    68
 40
0.0
 41
1.0
 50
0.0
 71
     0
 42
1.0
  3
txt
  4
bigfont.shx
  0
ENDTAB
  0
TABLE
  2
LAYER
 70
    6
  0
LAYER
  2
_0-1_
 70
   64
 62
    7
  6
CONTINUOUS
  0
LAYER
  2
_0-9__
 70
   64
 62
    7
  6
CONTINUOUS
  0
LAYER
  2
_0-a__
 70
   64
 62
    7
  6
CONTINUOUS
  0
LAYER
  2
_f-0_
 70
   64
 62
    7
  6
CONTINUOUS
  0
LAYER
  2
_f-a__
 70
   64
 62
    7
  6
CONTINUOUS
  0
LAYER
  2
ADD_LINE
 70
   64
 62
    7
  6
CONTINUOUS
  0
ENDTAB
  0
ENDSEC
  0
SECTION
  2
BLOCKS
  0
ENDSEC
  0
SECTION
  2
ENTITIES
  0
LINE
  8
ADD_LINE
  6
DOT
 62
    9
 10
269.33692519729209
 20
25
 11
269.33692519729209
 21
12.5
  0
LINE
  8
ADD_LINE
  6
DOT
 62
    9
 10
289.33692519729209
 20
25
 11
289.33692519729209
 21
12.5
  0
LINE
  8
ADD_LINE
  6
DOT
 62
    9
 10
410.25538779593808
 20
25
 11
410.25538779593808
 21
12.5
  0
LINE
  8
ADD_LINE
  6
DOT
 62
    9
 10
30.270532795938095
 20
25
 11
30.270532795938095
 21
12.5
  0
TEXT
  8
_f-a__
 62
    7
 10
144.80372899661506
 20
25
 40
3
 41
0.8333333333333333
 50
0
  1
名　　称
  0
TEXT
  8
_f-a__
 62
    7
 10
274.33692519729209
 20
25
 40
3
 41
0.8333333333333333
 50
0
  1
縮　　尺
  0
TEXT
  8
_f-a__
 62
    7
 10
344.79615649661508
 20
25
 40
3
 41
0.8333333333333333
 50
0
  1
品　　番
  0
LINE
  8
ADD_LINE
  6
DOT
 62
    9
 10
30.270532795938095
 20
25
 11
410.25538779593808
 21
25
  0
LINE
  8
ADD_LINE
  6
DOT
 62
    9
 10
30.270532795938095
 20
12.5
 11
410.25538779593808
 21
12.5
  0
TEXT
  8
_0-a__
 62
    3
 10
276.08692519729209
 20
16.25
 40
5
 41
0.8
 50
0
  1
1/1
  0
TEXT
  8
_0-a__
 62
    3
 10
340.92115649661508
 20
16.25
 40
5
 41
0.8
 50
0
  1
SET-NT12
  0
LINE
  8
_0-1_
  6
CONTINUOUS
 62
    7
 10
308.99428242763418
 20
85.306688784637657
 11
304.69428400859596
 21
85.306688784637657
  0
LINE
  8
_0-1_
  6
CONTINUOUS
 62
    7
 10
308.75164142763811
 20
89.306688784637657
 11
303.03742942763392
 21
89.306688784637657
  0
LINE
  8
_0-1_
  6
CONTINUOUS
 62
    7
 10
296.51560403365573
 20
77.12800997683631
 11
304.69428400859596
 21
85.306688784637657
  0
LINE
  8
_0-1_
  6
CONTINUOUS
 62
    7
 10
291.3942835387345
 20
75.00668978463824
 11
296.51560403365573
 21
77.12800997683631
  0
LINE
  8
_0-1_
  6
CONTINUOUS
 62
    7
 10
157.47296279394368
 20
77.128009982514669
 11
149.29428286846721
 21
85.306688784637657
  0
LINE
  8
_0-1_
  6
CONTINUOUS
 62
    7
 10
157.47296279394368
 20
77.128009982514669
 11
162.59428328318654
 21
75.00668978463824
  0
LINE
  8
_0-1_
  6
CONTINUOUS
 62
    7
 10
162.59428328318654
 20
75.00668978463824
 11
291.3942835387345
 21
75.00668978463824
  0
ARC
  8
_0-1_
  6
CONTINUOUS
 62
    7
 10
317.49428342753509
 20
97.006689784694856
 40
1
 50
0
 51
90
  0
LINE
  8
_0-1_
  6
CONTINUOUS
 62
    7
 10
317.49428342753509
 20
98.006689784694856
 11
315.49428342753509
 21
98.006689784694856
  0
LINE
  8
_0-1_
  6
CONTINUOUS
 62
    7
 10
315.49428342753509
 20
96.049330784539507
 11
315.49428342753509
 21
98.006689784694856
  0
LINE
  8
_0-1_
  6
CONTINUOUS
 62
    7
 10
308.75164142763811
 20
89.306688784637657
 11
315.49428342753509
 21
96.049330784539507
  0
LINE
  8
_0-1_
  6
CONTINUOUS
 62
    7
 10
318.49428342753509
 20
97.006689784694856
 11
318.49428342753509
 21
94.806689784539088
  0
LINE
  8
_0-1_
  6
CONTINUOUS
 62
    7
 10
318.49428342753509
 20
94.806689784539088
 11
308.99428242763418
 21
85.306688784637657
  0
LINE
  8
_0-1_
  6
CONTINUOUS
 62
    7
 10
147.99428330983534
 20
113.00668978476455
 11
147.99428330983534
 21
111.64983541507166
  0
LINE
  8
_0-1_
  6
CONTINUOUS
 62
    7
 10
145.76535124177434
 20
113.00668978470685
 11
147.99428330983534
 21
113.00668978470685
  0
ARC
  8
_0-1_
  6
CONTINUOUS
 62
    7
 10
145.76535124177434
 20
108.00668978470685
 40
5
 50
90
 51
135.00000000000003
  0
LINE
  8
_0-1_
  6
CONTINUOUS
 62
    7
 10
136.49428342753509
 20
100.14983553277145
 11
147.99428330983534
 21
111.64983541507166
  0
LINE
  8
_0-1_
  6
CONTINUOUS
 62
    7
 10
142.22981733587619
 20
111.54222369060494
 11
132.49428342753509
 21
101.80668978226382
  0
LINE
  8
_0-1_
  6
CONTINUOUS
 62
    7
 10
132.49428342753509
 20
96.406689782463928
 11
132.49428342753509
 21
101.80668978226382
  0
ARC
  8
_0-1_
  6
CONTINUOUS
 62
    7
 10
143.21560476897861
 20
86.806688784637657
 40
1.5
 50
225
 51
270
  0
LINE
  8
_0-1_
  6
CONTINUOUS
 62
    7
 10
136.49428342753509
 20
97.063544032013937
 11
136.49428342753509
 21
100.14983553277145
  0
LINE
  8
_0-1_
  6
CONTINUOUS
 62
    7
 10
136.49428342753509
 20
97.063544032013937
 11
144.25113867491137
 21
89.306688784637657
  0
LINE
  8
_0-1_
  6
CONTINUOUS
 62
    7
 10
142.15494459719878
 20
85.746028612857842
 11
132.49428342753509
 21
95.406689782521568
  0
LINE
  8
_0-1_
  6
CONTINUOUS
 62
    7
 10
132.49428342753509
 20
101.80668978226379
 11
132.49428342753509
 21
95.406689782521568
  0
LINE
  8
_0-1_
  6
CONTINUOUS
 62
    7
 10
143.21560476892097
 20
85.306688784637657
 11
149.29428286846721
 21
85.306688784637657
  0
LINE
  8
_0-1_
  6
CONTINUOUS
 62
    7
 10
152.36535061653763
 20
89.306688784637657
 11
144.25113867485373
 21
89.306688784637657
  0
LINE
  8
_0-1_
  6
CONTINUOUS
 62
    7
 10
159.665350619203
 20
82.006689784637786
 11
152.36535061653763
 21
89.306688784637657
  0
LINE
  8
_0-1_
  6
CONTINUOUS
 62
    7
 10
303.03742942763392
 20
89.306688784637657
 11
295.73743042763368
 21
82.006689784637786
  0
LINE
  8
_0-1_
  6
CONTINUOUS
 62
    7
 10
161.49417242763303
 20
82.006689784695439
 11
161.99417242763303
 21
80.006689784695439
  0
LINE
  8
_0-1_
  6
CONTINUOUS
 62
    7
 10
161.99417242763303
 20
80.006689784695439
 11
162.99417242763303
 21
80.006689784695439
  0
LINE
  8
_0-1_
  6
CONTINUOUS
 62
    7
 10
162.99417242763303
 20
80.006689784695439
 11
163.49417242761862
 21
82.006689784637786
  0
LINE
  8
_0-1_
  6
CONTINUOUS
 62
    7
 10
159.665350619203
 20
82.006689784637786
 11
161.49417242764744
 21
82.006689784637786
  0
LINE
  8
_0-1_
  6
CONTINUOUS
 62
    7
 10
163.49417242761862
 20
82.006689784637786
 11
164.49417242763303
 21
82.006689784637786
  0
LINE
  8
_0-1_
  6
CONTINUOUS
 62
    7
 10
292.49417242763303
 20
82.006689784637786
 11
295.73743042763368
 21
82.006689784637786
  0
LINE
  8
_0-1_
  6
CONTINUOUS
 62
    7
 10
164.49417242764744
 20
82.006689784695439
 11
164.99417242764744
 21
80.006689784695439
  0
LINE
  8
_0-1_
  6
CONTINUOUS
 62
    7
 10
164.99417242764744
 20
80.006689784695439
 11
165.99417242764744
 21
80.006689784695439
  0
LINE
  8
_0-1_
  6
CONTINUOUS
 62
    7
 10
165.99417242764744
 20
80.006689784695439
 11
166.49417242763303
 21
82.006689784637786
  0
LINE
  8
_0-1_
  6
CONTINUOUS
 62
    7
 10
166.49417242763303
 20
82.006689784637786
 11
167.49417242764744
 21
82.006689784637786
  0
LINE
  8
_0-1_
  6
CONTINUOUS
 62
    7
 10
167.49417242766185
 20
82.006689784695439
 11
167.99417242766185
 21
80.006689784695439
  0
LINE
  8
_0-1_
  6
CONTINUOUS
 62
    7
 10
167.99417242766185
 20
80.006689784695439
 11
168.99417242766185
 21
80.006689784695439
  0
LINE
  8
_0-1_
  6
CONTINUOUS
 62
    7
 10
168.99417242766185
 20
80.006689784695439
 11
169.49417242764744
 21
82.006689784637786
  0
LINE
  8
_0-1_
  6
CONTINUOUS
 62
    7
 10
169.49417242764744
 20
82.006689784637786
 11
170.49417242766185
 21
82.006689784637786
  0
LINE
  8
_0-1_
  6
CONTINUOUS
 62
    7
 10
170.49417242767626
 20
82.006689784695439
 11
170.99417242767626
 21
80.006689784695439
  0
LINE
  8
_0-1_
  6
CONTINUOUS
 62
    7
 10
170.99417242767626
 20
80.006689784695439
 11
171.99417242767626
 21
80.006689784695439
  0
LINE
  8
_0-1_
  6
CONTINUOUS
 62
    7
 10
171.99417242767626
 20
80.006689784695439
 11
172.49417242766185
 21
82.006689784637786
  0
LINE
  8
_0-1_
  6
CONTINUOUS
 62
    7
 10
172.49417242766185
 20
82.006689784637786
 11
173.49417242767626
 21
82.006689784637786
  0
LINE
  8
_0-1_
  6
CONTINUOUS
 62
    7
 10
173.49417242769067
 20
82.006689784695439
 11
173.99417242769067
 21
80.006689784695439
  0
LINE
  8
_0-1_
  6
CONTINUOUS
 62
    7
 10
173.99417242769067
 20
80.006689784695439
 11
174.99417242769067
 21
80.006689784695439
  0
LINE
  8
_0-1_
  6
CONTINUOUS
 62
    7
 10
174.99417242769067
 20
80.006689784695439
 11
175.49417242767626
 21
82.006689784637786
  0
LINE
  8
_0-1_
  6
CONTINUOUS
 62
    7
 10
175.49417242767626
 20
82.006689784637786
 11
176.49417242769067
 21
82.006689784637786
  0
LINE
  8
_0-1_
  6
CONTINUOUS
 62
    7
 10
176.49417242770508
 20
82.006689784695439
 11
176.99417242770508
 21
80.006689784695439
  0
LINE
  8
_0-1_
  6
CONTINUOUS
 62
    7
 10
176.99417242770508
 20
80.006689784695439
 11
177.99417242770508
 21
80.006689784695439
  0
LINE
  8
_0-1_
  6
CONTINUOUS
 62
    7
 10
177.99417242770508
 20
80.006689784695439
 11
178.49417242769067
 21
82.006689784637786
  0
LINE
  8
_0-1_
  6
CONTINUOUS
 62
    7
 10
178.49417242769067
 20
82.006689784637786
 11
179.49417242770508
 21
82.006689784637786
  0
LINE
  8
_0-1_
  6
CONTINUOUS
 62
    7
 10
179.49417242771949
 20
82.006689784695439
 11
179.99417242771949
 21
80.006689784695439
  0
LINE
  8
_0-1_
  6
CONTINUOUS
 62
    7
 10
179.99417242771949
 20
80.006689784695439
 11
180.99417242771949
 21
80.006689784695439
  0
LINE
  8
_0-1_
  6
CONTINUOUS
 62
    7
 10
180.99417242771949
 20
80.006689784695439
 11
181.49417242770508
 21
82.006689784637786
  0
LINE
  8
_0-1_
  6
CONTINUOUS
 62
    7
 10
181.49417242770508
 20
82.006689784637786
 11
182.49417242771949
 21
82.006689784637786
  0
LINE
  8
_0-1_
  6
CONTINUOUS
 62
    7
 10
182.4941724277339
 20
82.006689784695439
 11
182.9941724277339
 21
80.006689784695439
  0
LINE
  8
_0-1_
  6
CONTINUOUS
 62
    7
 10
182.9941724277339
 20
80.006689784695439
 11
183.9941724277339
 21
80.006689784695439
  0
LINE
  8
_0-1_
  6
CONTINUOUS
 62
    7
 10
183.9941724277339
 20
80.006689784695439
 11
184.49417242771949
 21
82.006689784637786
  0
LINE
  8
_0-1_
  6
CONTINUOUS
 62
    7
 10
184.49417242771949
 20
82.006689784637786
 11
185.4941724277339
 21
82.006689784637786
  0
LINE
  8
_0-1_
  6
CONTINUOUS
 62
    7
 10
185.49417242774831
 20
82.006689784695439
 11
185.99417242774831
 21
80.006689784695439
  0
LINE
  8
_0-1_
  6
CONTINUOUS
 62
    7
 10
185.99417242774831
 20
80.006689784695439
 11
186.99417242774831
 21
80.006689784695439
  0
LINE
  8
_0-1_
  6
CONTINUOUS
 62
    7
 10
186.99417242774831
 20
80.006689784695439
 11
187.4941724277339
 21
82.006689784637786
  0
LINE
  8
_0-1_
  6
CONTINUOUS
 62
    7
 10
187.4941724277339
 20
82.006689784637786
 11
188.49417242774831
 21
82.006689784637786
  0
LINE
  8
_0-1_
  6
CONTINUOUS
 62
    7
 10
188.49417242776272
 20
82.006689784695439
 11
188.99417242776272
 21
80.006689784695439
  0
LINE
  8
_0-1_
  6
CONTINUOUS
 62
    7
 10
188.99417242776272
 20
80.006689784695439
 11
189.99417242776272
 21
80.006689784695439
  0
LINE
  8
_0-1_
  6
CONTINUOUS
 62
    7
 10
189.99417242776272
 20
80.006689784695439
 11
190.49417242774831
 21
82.006689784637786
  0
LINE
  8
_0-1_
  6
CONTINUOUS
 62
    7
 10
190.49417242774831
 20
82.006689784637786
 11
191.49417242776272
 21
82.006689784637786
  0
LINE
  8
_0-1_
  6
CONTINUOUS
 62
    7
 10
191.49417242777713
 20
82.006689784695439
 11
191.99417242777713
 21
80.006689784695439
  0
LINE
  8
_0-1_
  6
CONTINUOUS
 62
    7
 10
191.99417242777713
 20
80.006689784695439
 11
192.99417242777713
 21
80.006689784695439
  0
LINE
  8
_0-1_
  6
CONTINUOUS
 62
    7
 10
192.99417242777713
 20
80.006689784695439
 11
193.49417242776272
 21
82.006689784637786
  0
LINE
  8
_0-1_
  6
CONTINUOUS
 62
    7
 10
193.49417242776272
 20
82.006689784637786
 11
194.49417242777713
 21
82.006689784637786
  0
LINE
  8
_0-1_
  6
CONTINUOUS
 62
    7
 10
194.49417242779154
 20
82.006689784695439
 11
194.99417242779154
 21
80.006689784695439
  0
LINE
  8
_0-1_
  6
CONTINUOUS
 62
    7
 10
194.99417242779154
 20
80.006689784695439
 11
195.99417242779154
 21
80.006689784695439
  0
LINE
  8
_0-1_
  6
CONTINUOUS
 62
    7
 10
195.99417242779154
 20
80.006689784695439
 11
196.49417242777713
 21
82.006689784637786
  0
LINE
  8
_0-1_
  6
CONTINUOUS
 62
    7
 10
196.49417242777713
 20
82.006689784637786
 11
197.49417242779154
 21
82.006689784637786
  0
LINE
  8
_0-1_
  6
CONTINUOUS
 62
    7
 10
197.49417242780595
 20
82.006689784695439
 11
197.99417242780595
 21
80.006689784695439
  0
LINE
  8
_0-1_
  6
CONTINUOUS
 62
    7
 10
197.99417242780595
 20
80.006689784695439
 11
198.99417242780595
 21
80.006689784695439
  0
LINE
  8
_0-1_
  6
CONTINUOUS
 62
    7
 10
198.99417242780595
 20
80.006689784695439
 11
199.49417242779154
 21
82.006689784637786
  0
LINE
  8
_0-1_
  6
CONTINUOUS
 62
    7
 10
199.49417242779154
 20
82.006689784637786
 11
200.49417242780595
 21
82.006689784637786
  0
LINE
  8
_0-1_
  6
CONTINUOUS
 62
    7
 10
200.49417242782036
 20
82.006689784695439
 11
200.99417242782036
 21
80.006689784695439
  0
LINE
  8
_0-1_
  6
CONTINUOUS
 62
    7
 10
200.99417242782036
 20
80.006689784695439
 11
201.99417242782036
 21
80.006689784695439
  0
LINE
  8
_0-1_
  6
CONTINUOUS
 62
    7
 10
201.99417242782036
 20
80.006689784695439
 11
202.49417242780595
 21
82.006689784637786
  0
LINE
  8
_0-1_
  6
CONTINUOUS
 62
    7
 10
202.49417242780595
 20
82.006689784637786
 11
203.49417242782036
 21
82.006689784637786
  0
LINE
  8
_0-1_
  6
CONTINUOUS
 62
    7
 10
203.49417242783477
 20
82.006689784695439
 11
203.99417242783477
 21
80.006689784695439
  0
LINE
  8
_0-1_
  6
CONTINUOUS
 62
    7
 10
203.99417242783477
 20
80.006689784695439
 11
204.99417242783477
 21
80.006689784695439
  0
LINE
  8
_0-1_
  6
CONTINUOUS
 62
    7
 10
204.99417242783477
 20
80.006689784695439
 11
205.49417242782036
 21
82.006689784637786
  0
LINE
  8
_0-1_
  6
CONTINUOUS
 62
    7
 10
205.49417242782036
 20
82.006689784637786
 11
206.49417242783477
 21
82.006689784637786
  0
LINE
  8
_0-1_
  6
CONTINUOUS
 62
    7
 10
206.49417242784918
 20
82.006689784695439
 11
206.99417242784918
 21
80.006689784695439
  0
LINE
  8
_0-1_
  6
CONTINUOUS
 62
    7
 10
206.99417242784918
 20
80.006689784695439
 11
207.99417242784918
 21
80.006689784695439
  0
LINE
  8
_0-1_
  6
CONTINUOUS
 62
    7
 10
207.99417242784918
 20
80.006689784695439
 11
208.49417242783477
 21
82.006689784637786
  0
LINE
  8
_0-1_
  6
CONTINUOUS
 62
    7
 10
208.49417242783477
 20
82.006689784637786
 11
209.49417242784918
 21
82.006689784637786
  0
LINE
  8
_0-1_
  6
CONTINUOUS
 62
    7
 10
209.49417242786359
 20
82.006689784695439
 11
209.99417242786359
 21
80.006689784695439
  0
LINE
  8
_0-1_
  6
CONTINUOUS
 62
    7
 10
209.99417242786359
 20
80.006689784695439
 11
210.99417242786359
 21
80.006689784695439
  0
LINE
  8
_0-1_
  6
CONTINUOUS
 62
    7
 10
210.99417242786359
 20
80.006689784695439
 11
211.49417242784918
 21
82.006689784637786
  0
LINE
  8
_0-1_
  6
CONTINUOUS
 62
    7
 10
211.49417242784918
 20
82.006689784637786
 11
212.49417242786359
 21
82.006689784637786
  0
LINE
  8
_0-1_
  6
CONTINUOUS
 62
    7
 10
212.494172427878
 20
82.006689784695439
 11
212.994172427878
 21
80.006689784695439
  0
LINE
  8
_0-1_
  6
CONTINUOUS
 62
    7
 10
212.994172427878
 20
80.006689784695439
 11
213.994172427878
 21
80.006689784695439
  0
LINE
  8
_0-1_
  6
CONTINUOUS
 62
    7
 10
213.994172427878
 20
80.006689784695439
 11
214.49417242786359
 21
82.006689784637786
  0
LINE
  8
_0-1_
  6
CONTINUOUS
 62
    7
 10
214.49417242786359
 20
82.006689784637786
 11
215.494172427878
 21
82.006689784637786
  0
LINE
  8
_0-1_
  6
CONTINUOUS
 62
    7
 10
215.49417242789241
 20
82.006689784695439
 11
215.99417242789241
 21
80.006689784695439
  0
LINE
  8
_0-1_
  6
CONTINUOUS
 62
    7
 10
215.99417242789241
 20
80.006689784695439
 11
216.99417242789241
 21
80.006689784695439
  0
LINE
  8
_0-1_
  6
CONTINUOUS
 62
    7
 10
216.99417242789241
 20
80.006689784695439
 11
217.494172427878
 21
82.006689784637786
  0
LINE
  8
_0-1_
  6
CONTINUOUS
 62
    7
 10
217.494172427878
 20
82.006689784637786
 11
218.49417242789241
 21
82.006689784637786
  0
LINE
  8
_0-1_
  6
CONTINUOUS
 62
    7
 10
218.49417242790682
 20
82.006689784695439
 11
218.99417242790682
 21
80.006689784695439
  0
LINE
  8
_0-1_
  6
CONTINUOUS
 62
    7
 10
218.99417242790682
 20
80.006689784695439
 11
219.99417242790682
 21
80.006689784695439
  0
LINE
  8
_0-1_
  6
CONTINUOUS
 62
    7
 10
219.99417242790682
 20
80.006689784695439
 11
220.49417242789241
 21
82.006689784637786
  0
LINE
  8
_0-1_
  6
CONTINUOUS
 62
    7
 10
220.49417242789241
 20
82.006689784637786
 11
221.49417242790682
 21
82.006689784637786
  0
LINE
  8
_0-1_
  6
CONTINUOUS
 62
    7
 10
221.49417242792123
 20
82.006689784695439
 11
221.99417242792123
 21
80.006689784695439
  0
LINE
  8
_0-1_
  6
CONTINUOUS
 62
    7
 10
221.99417242792123
 20
80.006689784695439
 11
222.99417242792123
 21
80.006689784695439
  0
LINE
  8
_0-1_
  6
CONTINUOUS
 62
    7
 10
222.99417242792123
 20
80.006689784695439
 11
223.49417242790682
 21
82.006689784637786
  0
LINE
  8
_0-1_
  6
CONTINUOUS
 62
    7
 10
223.49417242790682
 20
82.006689784637786
 11
224.49417242792123
 21
82.006689784637786
  0
LINE
  8
_0-1_
  6
CONTINUOUS
 62
    7
 10
224.49417242793564
 20
82.006689784695439
 11
224.99417242793564
 21
80.006689784695439
  0
LINE
  8
_0-1_
  6
CONTINUOUS
 62
    7
 10
224.99417242793564
 20
80.006689784695439
 11
225.99417242793564
 21
80.006689784695439
  0
LINE
  8
_0-1_
  6
CONTINUOUS
 62
    7
 10
225.99417242793564
 20
80.006689784695439
 11
226.49417242792123
 21
82.006689784637786
  0
LINE
  8
_0-1_
  6
CONTINUOUS
 62
    7
 10
226.49417242792123
 20
82.006689784637786
 11
227.49417242793564
 21
82.006689784637786
  0
LINE
  8
_0-1_
  6
CONTINUOUS
 62
    7
 10
227.49417242795005
 20
82.006689784695439
 11
227.99417242795005
 21
80.006689784695439
  0
LINE
  8
_0-1_
  6
CONTINUOUS
 62
    7
 10
227.99417242795005
 20
80.006689784695439
 11
228.99417242795005
 21
80.006689784695439
  0
LINE
  8
_0-1_
  6
CONTINUOUS
 62
    7
 10
228.99417242795005
 20
80.006689784695439
 11
229.49417242793564
 21
82.006689784637786
  0
LINE
  8
_0-1_
  6
CONTINUOUS
 62
    7
 10
229.49417242793564
 20
82.006689784637786
 11
230.49417242795005
 21
82.006689784637786
  0
LINE
  8
_0-1_
  6
CONTINUOUS
 62
    7
 10
230.49417242796446
 20
82.006689784695439
 11
230.99417242796446
 21
80.006689784695439
  0
LINE
  8
_0-1_
  6
CONTINUOUS
 62
    7
 10
230.99417242796446
 20
80.006689784695439
 11
231.99417242796446
 21
80.006689784695439
  0
LINE
  8
_0-1_
  6
CONTINUOUS
 62
    7
 10
231.99417242796446
 20
80.006689784695439
 11
232.49417242795005
 21
82.006689784637786
  0
LINE
  8
_0-1_
  6
CONTINUOUS
 62
    7
 10
232.49417242795005
 20
82.006689784637786
 11
233.49417242796446
 21
82.006689784637786
  0
LINE
  8
_0-1_
  6
CONTINUOUS
 62
    7
 10
233.49417242797887
 20
82.006689784695439
 11
233.99417242797887
 21
80.006689784695439
  0
LINE
  8
_0-1_
  6
CONTINUOUS
 62
    7
 10
233.99417242797887
 20
80.006689784695439
 11
234.99417242797887
 21
80.006689784695439
  0
LINE
  8
_0-1_
  6
CONTINUOUS
 62
    7
 10
234.99417242797887
 20
80.006689784695439
 11
235.49417242796446
 21
82.006689784637786
  0
LINE
  8
_0-1_
  6
CONTINUOUS
 62
    7
 10
235.49417242796446
 20
82.006689784637786
 11
236.49417242797887
 21
82.006689784637786
  0
LINE
  8
_0-1_
  6
CONTINUOUS
 62
    7
 10
236.49417242799328
 20
82.006689784695439
 11
236.99417242799328
 21
80.006689784695439
  0
LINE
  8
_0-1_
  6
CONTINUOUS
 62
    7
 10
236.99417242799328
 20
80.006689784695439
 11
237.99417242799328
 21
80.006689784695439
  0
LINE
  8
_0-1_
  6
CONTINUOUS
 62
    7
 10
237.99417242799328
 20
80.006689784695439
 11
238.49417242797887
 21
82.006689784637786
  0
LINE
  8
_0-1_
  6
CONTINUOUS
 62
    7
 10
238.49417242797887
 20
82.006689784637786
 11
239.49417242799328
 21
82.006689784637786
  0
LINE
  8
_0-1_
  6
CONTINUOUS
 62
    7
 10
239.49417242800769
 20
82.006689784695439
 11
239.99417242800769
 21
80.006689784695439
  0
LINE
  8
_0-1_
  6
CONTINUOUS
 62
    7
 10
239.99417242800769
 20
80.006689784695439
 11
240.99417242800769
 21
80.006689784695439
  0
LINE
  8
_0-1_
  6
CONTINUOUS
 62
    7
 10
240.99417242800769
 20
80.006689784695439
 11
241.49417242799328
 21
82.006689784637786
  0
LINE
  8
_0-1_
  6
CONTINUOUS
 62
    7
 10
241.49417242799328
 20
82.006689784637786
 11
242.49417242800769
 21
82.006689784637786
  0
LINE
  8
_0-1_
  6
CONTINUOUS
 62
    7
 10
242.4941724280221
 20
82.006689784695439
 11
242.9941724280221
 21
80.006689784695439
  0
LINE
  8
_0-1_
  6
CONTINUOUS
 62
    7
 10
242.9941724280221
 20
80.006689784695439
 11
243.9941724280221
 21
80.006689784695439
  0
LINE
  8
_0-1_
  6
CONTINUOUS
 62
    7
 10
243.9941724280221
 20
80.006689784695439
 11
244.49417242800769
 21
82.006689784637786
  0
LINE
  8
_0-1_
  6
CONTINUOUS
 62
    7
 10
244.49417242800769
 20
82.006689784637786
 11
245.4941724280221
 21
82.006689784637786
  0
LINE
  8
_0-1_
  6
CONTINUOUS
 62
    7
 10
245.49417242803651
 20
82.006689784695439
 11
245.99417242803651
 21
80.006689784695439
  0
LINE
  8
_0-1_
  6
CONTINUOUS
 62
    7
 10
245.99417242803651
 20
80.006689784695439
 11
246.99417242803651
 21
80.006689784695439
  0
LINE
  8
_0-1_
  6
CONTINUOUS
 62
    7
 10
246.99417242803651
 20
80.006689784695439
 11
247.4941724280221
 21
82.006689784637786
  0
LINE
  8
_0-1_
  6
CONTINUOUS
 62
    7
 10
247.4941724280221
 20
82.006689784637786
 11
248.49417242803651
 21
82.006689784637786
  0
LINE
  8
_0-1_
  6
CONTINUOUS
 62
    7
 10
248.49417242805092
 20
82.006689784695439
 11
248.99417242805092
 21
80.006689784695439
  0
LINE
  8
_0-1_
  6
CONTINUOUS
 62
    7
 10
248.99417242805092
 20
80.006689784695439
 11
249.99417242805092
 21
80.006689784695439
  0
LINE
  8
_0-1_
  6
CONTINUOUS
 62
    7
 10
249.99417242805092
 20
80.006689784695439
 11
250.49417242803651
 21
82.006689784637786
  0
LINE
  8
_0-1_
  6
CONTINUOUS
 62
    7
 10
250.49417242803651
 20
82.006689784637786
 11
251.49417242805092
 21
82.006689784637786
  0
LINE
  8
_0-1_
  6
CONTINUOUS
 62
    7
 10
251.49417242806533
 20
82.006689784695439
 11
251.99417242806533
 21
80.006689784695439
  0
LINE
  8
_0-1_
  6
CONTINUOUS
 62
    7
 10
251.99417242806533
 20
80.006689784695439
 11
252.99417242806533
 21
80.006689784695439
  0
LINE
  8
_0-1_
  6
CONTINUOUS
 62
    7
 10
252.99417242806533
 20
80.006689784695439
 11
253.49417242805092
 21
82.006689784637786
  0
LINE
  8
_0-1_
  6
CONTINUOUS
 62
    7
 10
253.49417242805092
 20
82.006689784637786
 11
254.49417242806533
 21
82.006689784637786
  0
LINE
  8
_0-1_
  6
CONTINUOUS
 62
    7
 10
254.49417242807974
 20
82.006689784695439
 11
254.99417242807974
 21
80.006689784695439
  0
LINE
  8
_0-1_
  6
CONTINUOUS
 62
    7
 10
254.99417242807974
 20
80.006689784695439
 11
255.99417242807974
 21
80.006689784695439
  0
LINE
  8
_0-1_
  6
CONTINUOUS
 62
    7
 10
255.99417242807974
 20
80.006689784695439
 11
256.49417242806533
 21
82.006689784637786
  0
LINE
  8
_0-1_
  6
CONTINUOUS
 62
    7
 10
256.49417242806533
 20
82.006689784637786
 11
257.49417242807976
 21
82.006689784637786
  0
LINE
  8
_0-1_
  6
CONTINUOUS
 62
    7
 10
257.49417242809415
 20
82.006689784695439
 11
257.99417242809415
 21
80.006689784695439
  0
LINE
  8
_0-1_
  6
CONTINUOUS
 62
    7
 10
257.99417242809415
 20
80.006689784695439
 11
258.99417242809415
 21
80.006689784695439
  0
LINE
  8
_0-1_
  6
CONTINUOUS
 62
    7
 10
258.99417242809415
 20
80.006689784695439
 11
259.49417242807976
 21
82.006689784637786
  0
LINE
  8
_0-1_
  6
CONTINUOUS
 62
    7
 10
259.49417242807976
 20
82.006689784637786
 11
260.49417242809415
 21
82.006689784637786
  0
LINE
  8
_0-1_
  6
CONTINUOUS
 62
    7
 10
260.49417242810858
 20
82.006689784695439
 11
260.99417242810858
 21
80.006689784695439
  0
LINE
  8
_0-1_
  6
CONTINUOUS
 62
    7
 10
260.99417242810858
 20
80.006689784695439
 11
261.99417242810858
 21
80.006689784695439
  0
LINE
  8
_0-1_
  6
CONTINUOUS
 62
    7
 10
261.99417242810858
 20
80.006689784695439
 11
262.49417242809415
 21
82.006689784637786
  0
LINE
  8
_0-1_
  6
CONTINUOUS
 62
    7
 10
262.49417242809415
 20
82.006689784637786
 11
263.49417242810858
 21
82.006689784637786
  0
LINE
  8
_0-1_
  6
CONTINUOUS
 62
    7
 10
263.49417242812297
 20
82.006689784695439
 11
263.99417242812297
 21
80.006689784695439
  0
LINE
  8
_0-1_
  6
CONTINUOUS
 62
    7
 10
263.99417242812297
 20
80.006689784695439
 11
264.99417242812297
 21
80.006689784695439
  0
LINE
  8
_0-1_
  6
CONTINUOUS
 62
    7
 10
264.99417242812297
 20
80.006689784695439
 11
265.49417242810858
 21
82.006689784637786
  0
LINE
  8
_0-1_
  6
CONTINUOUS
 62
    7
 10
265.49417242810858
 20
82.006689784637786
 11
266.49417242812297
 21
82.006689784637786
  0
LINE
  8
_0-1_
  6
CONTINUOUS
 62
    7
 10
266.4941724281374
 20
82.006689784695439
 11
266.9941724281374
 21
80.006689784695439
  0
LINE
  8
_0-1_
  6
CONTINUOUS
 62
    7
 10
266.9941724281374
 20
80.006689784695439
 11
267.9941724281374
 21
80.006689784695439
  0
LINE
  8
_0-1_
  6
CONTINUOUS
 62
    7
 10
267.9941724281374
 20
80.006689784695439
 11
268.49417242812297
 21
82.006689784637786
  0
LINE
  8
_0-1_
  6
CONTINUOUS
 62
    7
 10
268.49417242812297
 20
82.006689784637786
 11
269.4941724281374
 21
82.006689784637786
  0
LINE
  8
_0-1_
  6
CONTINUOUS
 62
    7
 10
269.49417242815178
 20
82.006689784695439
 11
269.99417242815178
 21
80.006689784695439
  0
LINE
  8
_0-1_
  6
CONTINUOUS
 62
    7
 10
269.99417242815178
 20
80.006689784695439
 11
270.99417242815178
 21
80.006689784695439
  0
LINE
  8
_0-1_
  6
CONTINUOUS
 62
    7
 10
270.99417242815178
 20
80.006689784695439
 11
271.4941724281374
 21
82.006689784637786
  0
LINE
  8
_0-1_
  6
CONTINUOUS
 62
    7
 10
271.4941724281374
 20
82.006689784637786
 11
272.49417242815178
 21
82.006689784637786
  0
LINE
  8
_0-1_
  6
CONTINUOUS
 62
    7
 10
272.49417242816622
 20
82.006689784695439
 11
272.99417242816622
 21
80.006689784695439
  0
LINE
  8
_0-1_
  6
CONTINUOUS
 62
    7
 10
272.99417242816622
 20
80.006689784695439
 11
273.99417242816622
 21
80.006689784695439
  0
LINE
  8
_0-1_
  6
CONTINUOUS
 62
    7
 10
273.99417242816622
 20
80.006689784695439
 11
274.49417242815178
 21
82.006689784637786
  0
LINE
  8
_0-1_
  6
CONTINUOUS
 62
    7
 10
274.49417242815178
 20
82.006689784637786
 11
275.49417242816617
 21
82.006689784637786
  0
LINE
  8
_0-1_
  6
CONTINUOUS
 62
    7
 10
275.4941724281806
 20
82.006689784695439
 11
275.9941724281806
 21
80.006689784695439
  0
LINE
  8
_0-1_
  6
CONTINUOUS
 62
    7
 10
275.9941724281806
 20
80.006689784695439
 11
276.9941724281806
 21
80.006689784695439
  0
LINE
  8
_0-1_
  6
CONTINUOUS
 62
    7
 10
276.9941724281806
 20
80.006689784695439
 11
277.49417242816617
 21
82.006689784637786
  0
LINE
  8
_0-1_
  6
CONTINUOUS
 62
    7
 10
277.49417242816617
 20
82.006689784637786
 11
278.4941724281806
 21
82.006689784637786
  0
LINE
  8
_0-1_
  6
CONTINUOUS
 62
    7
 10
278.49417242819504
 20
82.006689784695439
 11
278.99417242819504
 21
80.006689784695439
  0
LINE
  8
_0-1_
  6
CONTINUOUS
 62
    7
 10
278.99417242819504
 20
80.006689784695439
 11
279.99417242819504
 21
80.006689784695439
  0
LINE
  8
_0-1_
  6
CONTINUOUS
 62
    7
 10
279.99417242819504
 20
80.006689784695439
 11
280.4941724281806
 21
82.006689784637786
  0
LINE
  8
_0-1_
  6
CONTINUOUS
 62
    7
 10
280.4941724281806
 20
82.006689784637786
 11
281.49417242819504
 21
82.006689784637786
  0
LINE
  8
_0-1_
  6
CONTINUOUS
 62
    7
 10
281.49417242820942
 20
82.006689784695439
 11
281.99417242820942
 21
80.006689784695439
  0
LINE
  8
_0-1_
  6
CONTINUOUS
 62
    7
 10
281.99417242820942
 20
80.006689784695439
 11
282.99417242820942
 21
80.006689784695439
  0
LINE
  8
_0-1_
  6
CONTINUOUS
 62
    7
 10
282.99417242820942
 20
80.006689784695439
 11
283.49417242819504
 21
82.006689784637786
  0
LINE
  8
_0-1_
  6
CONTINUOUS
 62
    7
 10
283.49417242819504
 20
82.006689784637786
 11
284.49417242820942
 21
82.006689784637786
  0
LINE
  8
_0-1_
  6
CONTINUOUS
 62
    7
 10
284.49417242822381
 20
82.006689784695439
 11
284.99417242822381
 21
80.006689784695439
  0
LINE
  8
_0-1_
  6
CONTINUOUS
 62
    7
 10
284.99417242822381
 20
80.006689784695439
 11
285.99417242822381
 21
80.006689784695439
  0
LINE
  8
_0-1_
  6
CONTINUOUS
 62
    7
 10
285.99417242822381
 20
80.006689784695439
 11
286.49417242820942
 21
82.006689784637786
  0
LINE
  8
_0-1_
  6
CONTINUOUS
 62
    7
 10
286.49417242820942
 20
82.006689784637786
 11
287.49417242822381
 21
82.006689784637786
  0
LINE
  8
_0-1_
  6
CONTINUOUS
 62
    7
 10
287.49417242823824
 20
82.006689784695439
 11
287.99417242823824
 21
80.006689784695439
  0
LINE
  8
_0-1_
  6
CONTINUOUS
 62
    7
 10
287.99417242823824
 20
80.006689784695439
 11
288.99417242823824
 21
80.006689784695439
  0
LINE
  8
_0-1_
  6
CONTINUOUS
 62
    7
 10
288.99417242823824
 20
80.006689784695439
 11
289.49417242822381
 21
82.006689784637786
  0
LINE
  8
_0-1_
  6
CONTINUOUS
 62
    7
 10
289.49417242822381
 20
82.006689784637786
 11
290.49417242823824
 21
82.006689784637786
  0
LINE
  8
_0-1_
  6
CONTINUOUS
 62
    7
 10
290.49417242825263
 20
82.006689784695439
 11
290.99417242825263
 21
80.006689784695439
  0
LINE
  8
_0-1_
  6
CONTINUOUS
 62
    7
 10
290.99417242825263
 20
80.006689784695439
 11
291.99417242825263
 21
80.006689784695439
  0
LINE
  8
_0-1_
  6
CONTINUOUS
 62
    7
 10
291.99417242825263
 20
80.006689784695439
 11
292.49417242823824
 21
82.006689784637786
  0
LINE
  8
_0-1_
  6
CONTINUOUS
 62
    7
 10
308.99428242763418
 20
85.306688784637672
 11
304.69428400859596
 21
85.306688784637672
  0
LINE
  8
_0-1_
  6
CONTINUOUS
 62
    7
 10
308.75164142763811
 20
89.306688784637672
 11
303.03742942763392
 21
89.306688784637672
  0
LINE
  8
_0-1_
  6
CONTINUOUS
 62
    7
 10
296.51560403365573
 20
77.12800997683631
 11
304.69428400859596
 21
85.306688784637672
  0
LINE
  8
_0-1_
  6
CONTINUOUS
 62
    7
 10
291.3942835387345
 20
75.006689784638226
 11
296.51560403365573
 21
77.12800997683631
  0
LINE
  8
_0-1_
  6
CONTINUOUS
 62
    7
 10
157.47296279394368
 20
77.128009982514655
 11
149.29428286846721
 21
85.306688784637672
  0
LINE
  8
_0-1_
  6
CONTINUOUS
 62
    7
 10
157.47296279394368
 20
77.128009982514655
 11
162.59428328318654
 21
75.006689784638226
  0
LINE
  8
_0-1_
  6
CONTINUOUS
 62
    7
 10
162.59428328318654
 20
75.006689784638226
 11
291.3942835387345
 21
75.006689784638226
  0
ARC
  8
_0-1_
  6
CONTINUOUS
 62
    7
 10
317.49428342753509
 20
97.006689784694856
 40
1
 50
0
 51
90
  0
LINE
  8
_0-1_
  6
CONTINUOUS
 62
    7
 10
317.49428342753509
 20
98.006689784694856
 11
315.49428342753509
 21
98.006689784694856
  0
LINE
  8
_0-1_
  6
CONTINUOUS
 62
    7
 10
315.49428342753509
 20
96.049330784539507
 11
315.49428342753509
 21
98.006689784694856
  0
LINE
  8
_0-1_
  6
CONTINUOUS
 62
    7
 10
308.75164142763811
 20
89.306688784637672
 11
315.49428342753509
 21
96.049330784539507
  0
LINE
  8
_0-1_
  6
CONTINUOUS
 62
    7
 10
318.49428342753509
 20
97.006689784694856
 11
318.49428342753509
 21
94.806689784539088
  0
LINE
  8
_0-1_
  6
CONTINUOUS
 62
    7
 10
318.49428342753509
 20
94.806689784539088
 11
308.99428242763418
 21
85.306688784637672
  0
LINE
  8
_0-1_
  6
CONTINUOUS
 62
    7
 10
147.99428330983534
 20
113.00668978476455
 11
147.99428330983534
 21
111.64983541507166
  0
LINE
  8
_0-1_
  6
CONTINUOUS
 62
    7
 10
145.76535124177434
 20
113.00668978470685
 11
147.99428330983534
 21
113.00668978470685
  0
ARC
  8
_0-1_
  6
CONTINUOUS
 62
    7
 10
145.76535124177434
 20
108.00668978470685
 40
5
 50
90
 51
135.00000000000003
  0
LINE
  8
_0-1_
  6
CONTINUOUS
 62
    7
 10
136.49428342753509
 20
100.14983553277145
 11
147.99428330983534
 21
111.64983541507166
  0
LINE
  8
_0-1_
  6
CONTINUOUS
 62
    7
 10
142.22981733587619
 20
111.54222369060494
 11
132.49428342753509
 21
101.80668978226385
  0
LINE
  8
_0-1_
  6
CONTINUOUS
 62
    7
 10
132.49428342753509
 20
96.406689782463957
 11
132.49428342753509
 21
101.80668978226385
  0
ARC
  8
_0-1_
  6
CONTINUOUS
 62
    7
 10
143.21560476897861
 20
86.806688784637672
 40
1.5
 50
225
 51
270
  0
LINE
  8
_0-1_
  6
CONTINUOUS
 62
    7
 10
136.49428342753509
 20
97.063544032013937
 11
136.49428342753509
 21
100.14983553277145
  0
LINE
  8
_0-1_
  6
CONTINUOUS
 62
    7
 10
136.49428342753509
 20
97.063544032013937
 11
144.25113867491137
 21
89.306688784637672
  0
LINE
  8
_0-1_
  6
CONTINUOUS
 62
    7
 10
142.15494459719878
 20
85.746028612857842
 11
132.49428342753509
 21
95.406689782521568
  0
LINE
  8
_0-1_
  6
CONTINUOUS
 62
    7
 10
132.49428342753509
 20
101.80668978226379
 11
132.49428342753509
 21
95.406689782521568
  0
LINE
  8
_0-1_
  6
CONTINUOUS
 62
    7
 10
143.21560476892097
 20
85.306688784637672
 11
149.29428286846721
 21
85.306688784637672
  0
LINE
  8
_0-1_
  6
CONTINUOUS
 62
    7
 10
152.36535061653763
 20
89.306688784637672
 11
144.25113867485373
 21
89.306688784637672
  0
LINE
  8
_0-1_
  6
CONTINUOUS
 62
    7
 10
159.665350619203
 20
82.006689784637771
 11
152.36535061653763
 21
89.306688784637672
  0
LINE
  8
_0-1_
  6
CONTINUOUS
 62
    7
 10
303.03742942763392
 20
89.306688784637672
 11
295.73743042763368
 21
82.006689784637771
  0
LINE
  8
_0-1_
  6
CONTINUOUS
 62
    7
 10
161.49417242763303
 20
82.006689784695439
 11
161.99417242763303
 21
80.006689784695439
  0
LINE
  8
_0-1_
  6
CONTINUOUS
 62
    7
 10
161.99417242763303
 20
80.006689784695439
 11
162.99417242763303
 21
80.006689784695439
  0
LINE
  8
_0-1_
  6
CONTINUOUS
 62
    7
 10
162.99417242763303
 20
80.006689784695439
 11
163.49417242761862
 21
82.006689784637771
  0
LINE
  8
_0-1_
  6
CONTINUOUS
 62
    7
 10
159.665350619203
 20
82.006689784637771
 11
161.49417242764744
 21
82.006689784637771
  0
LINE
  8
_0-1_
  6
CONTINUOUS
 62
    7
 10
163.49417242761862
 20
82.006689784637771
 11
164.49417242763303
 21
82.006689784637771
  0
LINE
  8
_0-1_
  6
CONTINUOUS
 62
    7
 10
292.49417242763303
 20
82.006689784637771
 11
295.73743042763368
 21
82.006689784637771
  0
LINE
  8
_0-1_
  6
CONTINUOUS
 62
    7
 10
164.49417242764744
 20
82.006689784695439
 11
164.99417242764744
 21
80.006689784695439
  0
LINE
  8
_0-1_
  6
CONTINUOUS
 62
    7
 10
164.99417242764744
 20
80.006689784695439
 11
165.99417242764744
 21
80.006689784695439
  0
LINE
  8
_0-1_
  6
CONTINUOUS
 62
    7
 10
165.99417242764744
 20
80.006689784695439
 11
166.49417242763303
 21
82.006689784637771
  0
LINE
  8
_0-1_
  6
CONTINUOUS
 62
    7
 10
166.49417242763303
 20
82.006689784637771
 11
167.49417242764744
 21
82.006689784637771
  0
LINE
  8
_0-1_
  6
CONTINUOUS
 62
    7
 10
167.49417242766185
 20
82.006689784695439
 11
167.99417242766185
 21
80.006689784695439
  0
LINE
  8
_0-1_
  6
CONTINUOUS
 62
    7
 10
167.99417242766185
 20
80.006689784695439
 11
168.99417242766185
 21
80.006689784695439
  0
LINE
  8
_0-1_
  6
CONTINUOUS
 62
    7
 10
168.99417242766185
 20
80.006689784695439
 11
169.49417242764744
 21
82.006689784637771
  0
LINE
  8
_0-1_
  6
CONTINUOUS
 62
    7
 10
169.49417242764744
 20
82.006689784637771
 11
170.49417242766185
 21
82.006689784637771
  0
LINE
  8
_0-1_
  6
CONTINUOUS
 62
    7
 10
170.49417242767626
 20
82.006689784695439
 11
170.99417242767626
 21
80.006689784695439
  0
LINE
  8
_0-1_
  6
CONTINUOUS
 62
    7
 10
170.99417242767626
 20
80.006689784695439
 11
171.99417242767626
 21
80.006689784695439
  0
LINE
  8
_0-1_
  6
CONTINUOUS
 62
    7
 10
171.99417242767626
 20
80.006689784695439
 11
172.49417242766185
 21
82.006689784637771
  0
LINE
  8
_0-1_
  6
CONTINUOUS
 62
    7
 10
172.49417242766185
 20
82.006689784637771
 11
173.49417242767626
 21
82.006689784637771
  0
LINE
  8
_0-1_
  6
CONTINUOUS
 62
    7
 10
173.49417242769067
 20
82.006689784695439
 11
173.99417242769067
 21
80.006689784695439
  0
LINE
  8
_0-1_
  6
CONTINUOUS
 62
    7
 10
173.99417242769067
 20
80.006689784695439
 11
174.99417242769067
 21
80.006689784695439
  0
LINE
  8
_0-1_
  6
CONTINUOUS
 62
    7
 10
174.99417242769067
 20
80.006689784695439
 11
175.49417242767626
 21
82.006689784637771
  0
LINE
  8
_0-1_
  6
CONTINUOUS
 62
    7
 10
175.49417242767626
 20
82.006689784637771
 11
176.49417242769067
 21
82.006689784637771
  0
LINE
  8
_0-1_
  6
CONTINUOUS
 62
    7
 10
176.49417242770508
 20
82.006689784695439
 11
176.99417242770508
 21
80.006689784695439
  0
LINE
  8
_0-1_
  6
CONTINUOUS
 62
    7
 10
176.99417242770508
 20
80.006689784695439
 11
177.99417242770508
 21
80.006689784695439
  0
LINE
  8
_0-1_
  6
CONTINUOUS
 62
    7
 10
177.99417242770508
 20
80.006689784695439
 11
178.49417242769067
 21
82.006689784637771
  0
LINE
  8
_0-1_
  6
CONTINUOUS
 62
    7
 10
178.49417242769067
 20
82.006689784637771
 11
179.49417242770508
 21
82.006689784637771
  0
LINE
  8
_0-1_
  6
CONTINUOUS
 62
    7
 10
179.49417242771949
 20
82.006689784695439
 11
179.99417242771949
 21
80.006689784695439
  0
LINE
  8
_0-1_
  6
CONTINUOUS
 62
    7
 10
179.99417242771949
 20
80.006689784695439
 11
180.99417242771949
 21
80.006689784695439
  0
LINE
  8
_0-1_
  6
CONTINUOUS
 62
    7
 10
180.99417242771949
 20
80.006689784695439
 11
181.49417242770508
 21
82.006689784637771
  0
LINE
  8
_0-1_
  6
CONTINUOUS
 62
    7
 10
181.49417242770508
 20
82.006689784637771
 11
182.49417242771949
 21
82.006689784637771
  0
LINE
  8
_0-1_
  6
CONTINUOUS
 62
    7
 10
182.4941724277339
 20
82.006689784695439
 11
182.9941724277339
 21
80.006689784695439
  0
LINE
  8
_0-1_
  6
CONTINUOUS
 62
    7
 10
182.9941724277339
 20
80.006689784695439
 11
183.9941724277339
 21
80.006689784695439
  0
LINE
  8
_0-1_
  6
CONTINUOUS
 62
    7
 10
183.9941724277339
 20
80.006689784695439
 11
184.49417242771949
 21
82.006689784637771
  0
LINE
  8
_0-1_
  6
CONTINUOUS
 62
    7
 10
184.49417242771949
 20
82.006689784637771
 11
185.4941724277339
 21
82.006689784637771
  0
LINE
  8
_0-1_
  6
CONTINUOUS
 62
    7
 10
185.49417242774831
 20
82.006689784695439
 11
185.99417242774831
 21
80.006689784695439
  0
LINE
  8
_0-1_
  6
CONTINUOUS
 62
    7
 10
185.99417242774831
 20
80.006689784695439
 11
186.99417242774831
 21
80.006689784695439
  0
LINE
  8
_0-1_
  6
CONTINUOUS
 62
    7
 10
186.99417242774831
 20
80.006689784695439
 11
187.4941724277339
 21
82.006689784637771
  0
LINE
  8
_0-1_
  6
CONTINUOUS
 62
    7
 10
187.4941724277339
 20
82.006689784637771
 11
188.49417242774831
 21
82.006689784637771
  0
LINE
  8
_0-1_
  6
CONTINUOUS
 62
    7
 10
188.49417242776272
 20
82.006689784695439
 11
188.99417242776272
 21
80.006689784695439
  0
LINE
  8
_0-1_
  6
CONTINUOUS
 62
    7
 10
188.99417242776272
 20
80.006689784695439
 11
189.99417242776272
 21
80.006689784695439
  0
LINE
  8
_0-1_
  6
CONTINUOUS
 62
    7
 10
189.99417242776272
 20
80.006689784695439
 11
190.49417242774831
 21
82.006689784637771
  0
LINE
  8
_0-1_
  6
CONTINUOUS
 62
    7
 10
190.49417242774831
 20
82.006689784637771
 11
191.49417242776272
 21
82.006689784637771
  0
LINE
  8
_0-1_
  6
CONTINUOUS
 62
    7
 10
191.49417242777713
 20
82.006689784695439
 11
191.99417242777713
 21
80.006689784695439
  0
LINE
  8
_0-1_
  6
CONTINUOUS
 62
    7
 10
191.99417242777713
 20
80.006689784695439
 11
192.99417242777713
 21
80.006689784695439
  0
LINE
  8
_0-1_
  6
CONTINUOUS
 62
    7
 10
192.99417242777713
 20
80.006689784695439
 11
193.49417242776272
 21
82.006689784637771
  0
LINE
  8
_0-1_
  6
CONTINUOUS
 62
    7
 10
193.49417242776272
 20
82.006689784637771
 11
194.49417242777713
 21
82.006689784637771
  0
LINE
  8
_0-1_
  6
CONTINUOUS
 62
    7
 10
194.49417242779154
 20
82.006689784695439
 11
194.99417242779154
 21
80.006689784695439
  0
LINE
  8
_0-1_
  6
CONTINUOUS
 62
    7
 10
194.99417242779154
 20
80.006689784695439
 11
195.99417242779154
 21
80.006689784695439
  0
LINE
  8
_0-1_
  6
CONTINUOUS
 62
    7
 10
195.99417242779154
 20
80.006689784695439
 11
196.49417242777713
 21
82.006689784637771
  0
LINE
  8
_0-1_
  6
CONTINUOUS
 62
    7
 10
196.49417242777713
 20
82.006689784637771
 11
197.49417242779154
 21
82.006689784637771
  0
LINE
  8
_0-1_
  6
CONTINUOUS
 62
    7
 10
197.49417242780595
 20
82.006689784695439
 11
197.99417242780595
 21
80.006689784695439
  0
LINE
  8
_0-1_
  6
CONTINUOUS
 62
    7
 10
197.99417242780595
 20
80.006689784695439
 11
198.99417242780595
 21
80.006689784695439
  0
LINE
  8
_0-1_
  6
CONTINUOUS
 62
    7
 10
198.99417242780595
 20
80.006689784695439
 11
199.49417242779154
 21
82.006689784637771
  0
LINE
  8
_0-1_
  6
CONTINUOUS
 62
    7
 10
199.49417242779154
 20
82.006689784637771
 11
200.49417242780595
 21
82.006689784637771
  0
LINE
  8
_0-1_
  6
CONTINUOUS
 62
    7
 10
200.49417242782036
 20
82.006689784695439
 11
200.99417242782036
 21
80.006689784695439
  0
LINE
  8
_0-1_
  6
CONTINUOUS
 62
    7
 10
200.99417242782036
 20
80.006689784695439
 11
201.99417242782036
 21
80.006689784695439
  0
LINE
  8
_0-1_
  6
CONTINUOUS
 62
    7
 10
201.99417242782036
 20
80.006689784695439
 11
202.49417242780595
 21
82.006689784637771
  0
LINE
  8
_0-1_
  6
CONTINUOUS
 62
    7
 10
202.49417242780595
 20
82.006689784637771
 11
203.49417242782036
 21
82.006689784637771
  0
LINE
  8
_0-1_
  6
CONTINUOUS
 62
    7
 10
203.49417242783477
 20
82.006689784695439
 11
203.99417242783477
 21
80.006689784695439
  0
LINE
  8
_0-1_
  6
CONTINUOUS
 62
    7
 10
203.99417242783477
 20
80.006689784695439
 11
204.99417242783477
 21
80.006689784695439
  0
LINE
  8
_0-1_
  6
CONTINUOUS
 62
    7
 10
204.99417242783477
 20
80.006689784695439
 11
205.49417242782036
 21
82.006689784637771
  0
LINE
  8
_0-1_
  6
CONTINUOUS
 62
    7
 10
205.49417242782036
 20
82.006689784637771
 11
206.49417242783477
 21
82.006689784637771
  0
LINE
  8
_0-1_
  6
CONTINUOUS
 62
    7
 10
206.49417242784918
 20
82.006689784695439
 11
206.99417242784918
 21
80.006689784695439
  0
LINE
  8
_0-1_
  6
CONTINUOUS
 62
    7
 10
206.99417242784918
 20
80.006689784695439
 11
207.99417242784918
 21
80.006689784695439
  0
LINE
  8
_0-1_
  6
CONTINUOUS
 62
    7
 10
207.99417242784918
 20
80.006689784695439
 11
208.49417242783477
 21
82.006689784637771
  0
LINE
  8
_0-1_
  6
CONTINUOUS
 62
    7
 10
208.49417242783477
 20
82.006689784637771
 11
209.49417242784918
 21
82.006689784637771
  0
LINE
  8
_0-1_
  6
CONTINUOUS
 62
    7
 10
209.49417242786359
 20
82.006689784695439
 11
209.99417242786359
 21
80.006689784695439
  0
LINE
  8
_0-1_
  6
CONTINUOUS
 62
    7
 10
209.99417242786359
 20
80.006689784695439
 11
210.99417242786359
 21
80.006689784695439
  0
LINE
  8
_0-1_
  6
CONTINUOUS
 62
    7
 10
210.99417242786359
 20
80.006689784695439
 11
211.49417242784918
 21
82.006689784637771
  0
LINE
  8
_0-1_
  6
CONTINUOUS
 62
    7
 10
211.49417242784918
 20
82.006689784637771
 11
212.49417242786359
 21
82.006689784637771
  0
LINE
  8
_0-1_
  6
CONTINUOUS
 62
    7
 10
212.494172427878
 20
82.006689784695439
 11
212.994172427878
 21
80.006689784695439
  0
LINE
  8
_0-1_
  6
CONTINUOUS
 62
    7
 10
212.994172427878
 20
80.006689784695439
 11
213.994172427878
 21
80.006689784695439
  0
LINE
  8
_0-1_
  6
CONTINUOUS
 62
    7
 10
213.994172427878
 20
80.006689784695439
 11
214.49417242786359
 21
82.006689784637771
  0
LINE
  8
_0-1_
  6
CONTINUOUS
 62
    7
 10
214.49417242786359
 20
82.006689784637771
 11
215.494172427878
 21
82.006689784637771
  0
LINE
  8
_0-1_
  6
CONTINUOUS
 62
    7
 10
215.49417242789241
 20
82.006689784695439
 11
215.99417242789241
 21
80.006689784695439
  0
LINE
  8
_0-1_
  6
CONTINUOUS
 62
    7
 10
215.99417242789241
 20
80.006689784695439
 11
216.99417242789241
 21
80.006689784695439
  0
LINE
  8
_0-1_
  6
CONTINUOUS
 62
    7
 10
216.99417242789241
 20
80.006689784695439
 11
217.494172427878
 21
82.006689784637771
  0
LINE
  8
_0-1_
  6
CONTINUOUS
 62
    7
 10
217.494172427878
 20
82.006689784637771
 11
218.49417242789241
 21
82.006689784637771
  0
LINE
  8
_0-1_
  6
CONTINUOUS
 62
    7
 10
218.49417242790682
 20
82.006689784695439
 11
218.99417242790682
 21
80.006689784695439
  0
LINE
  8
_0-1_
  6
CONTINUOUS
 62
    7
 10
218.99417242790682
 20
80.006689784695439
 11
219.99417242790682
 21
80.006689784695439
  0
LINE
  8
_0-1_
  6
CONTINUOUS
 62
    7
 10
219.99417242790682
 20
80.006689784695439
 11
220.49417242789241
 21
82.006689784637771
  0
LINE
  8
_0-1_
  6
CONTINUOUS
 62
    7
 10
220.49417242789241
 20
82.006689784637771
 11
221.49417242790682
 21
82.006689784637771
  0
LINE
  8
_0-1_
  6
CONTINUOUS
 62
    7
 10
221.49417242792123
 20
82.006689784695439
 11
221.99417242792123
 21
80.006689784695439
  0
LINE
  8
_0-1_
  6
CONTINUOUS
 62
    7
 10
221.99417242792123
 20
80.006689784695439
 11
222.99417242792123
 21
80.006689784695439
  0
LINE
  8
_0-1_
  6
CONTINUOUS
 62
    7
 10
222.99417242792123
 20
80.006689784695439
 11
223.49417242790682
 21
82.006689784637771
  0
LINE
  8
_0-1_
  6
CONTINUOUS
 62
    7
 10
223.49417242790682
 20
82.006689784637771
 11
224.49417242792123
 21
82.006689784637771
  0
LINE
  8
_0-1_
  6
CONTINUOUS
 62
    7
 10
224.49417242793564
 20
82.006689784695439
 11
224.99417242793564
 21
80.006689784695439
  0
LINE
  8
_0-1_
  6
CONTINUOUS
 62
    7
 10
224.99417242793564
 20
80.006689784695439
 11
225.99417242793564
 21
80.006689784695439
  0
LINE
  8
_0-1_
  6
CONTINUOUS
 62
    7
 10
225.99417242793564
 20
80.006689784695439
 11
226.49417242792123
 21
82.006689784637771
  0
LINE
  8
_0-1_
  6
CONTINUOUS
 62
    7
 10
226.49417242792123
 20
82.006689784637771
 11
227.49417242793564
 21
82.006689784637771
  0
LINE
  8
_0-1_
  6
CONTINUOUS
 62
    7
 10
227.49417242795005
 20
82.006689784695439
 11
227.99417242795005
 21
80.006689784695439
  0
LINE
  8
_0-1_
  6
CONTINUOUS
 62
    7
 10
227.99417242795005
 20
80.006689784695439
 11
228.99417242795005
 21
80.006689784695439
  0
LINE
  8
_0-1_
  6
CONTINUOUS
 62
    7
 10
228.99417242795005
 20
80.006689784695439
 11
229.49417242793564
 21
82.006689784637771
  0
LINE
  8
_0-1_
  6
CONTINUOUS
 62
    7
 10
229.49417242793564
 20
82.006689784637771
 11
230.49417242795005
 21
82.006689784637771
  0
LINE
  8
_0-1_
  6
CONTINUOUS
 62
    7
 10
230.49417242796446
 20
82.006689784695439
 11
230.99417242796446
 21
80.006689784695439
  0
LINE
  8
_0-1_
  6
CONTINUOUS
 62
    7
 10
230.99417242796446
 20
80.006689784695439
 11
231.99417242796446
 21
80.006689784695439
  0
LINE
  8
_0-1_
  6
CONTINUOUS
 62
    7
 10
231.99417242796446
 20
80.006689784695439
 11
232.49417242795005
 21
82.006689784637771
  0
LINE
  8
_0-1_
  6
CONTINUOUS
 62
    7
 10
232.49417242795005
 20
82.006689784637771
 11
233.49417242796446
 21
82.006689784637771
  0
LINE
  8
_0-1_
  6
CONTINUOUS
 62
    7
 10
233.49417242797887
 20
82.006689784695439
 11
233.99417242797887
 21
80.006689784695439
  0
LINE
  8
_0-1_
  6
CONTINUOUS
 62
    7
 10
233.99417242797887
 20
80.006689784695439
 11
234.99417242797887
 21
80.006689784695439
  0
LINE
  8
_0-1_
  6
CONTINUOUS
 62
    7
 10
234.99417242797887
 20
80.006689784695439
 11
235.49417242796446
 21
82.006689784637771
  0
LINE
  8
_0-1_
  6
CONTINUOUS
 62
    7
 10
235.49417242796446
 20
82.006689784637771
 11
236.49417242797887
 21
82.006689784637771
  0
LINE
  8
_0-1_
  6
CONTINUOUS
 62
    7
 10
236.49417242799328
 20
82.006689784695439
 11
236.99417242799328
 21
80.006689784695439
  0
LINE
  8
_0-1_
  6
CONTINUOUS
 62
    7
 10
236.99417242799328
 20
80.006689784695439
 11
237.99417242799328
 21
80.006689784695439
  0
LINE
  8
_0-1_
  6
CONTINUOUS
 62
    7
 10
237.99417242799328
 20
80.006689784695439
 11
238.49417242797887
 21
82.006689784637771
  0
LINE
  8
_0-1_
  6
CONTINUOUS
 62
    7
 10
238.49417242797887
 20
82.006689784637771
 11
239.49417242799328
 21
82.006689784637771
  0
LINE
  8
_0-1_
  6
CONTINUOUS
 62
    7
 10
239.49417242800769
 20
82.006689784695439
 11
239.99417242800769
 21
80.006689784695439
  0
LINE
  8
_0-1_
  6
CONTINUOUS
 62
    7
 10
239.99417242800769
 20
80.006689784695439
 11
240.99417242800769
 21
80.006689784695439
  0
LINE
  8
_0-1_
  6
CONTINUOUS
 62
    7
 10
240.99417242800769
 20
80.006689784695439
 11
241.49417242799328
 21
82.006689784637771
  0
LINE
  8
_0-1_
  6
CONTINUOUS
 62
    7
 10
241.49417242799328
 20
82.006689784637771
 11
242.49417242800769
 21
82.006689784637771
  0
LINE
  8
_0-1_
  6
CONTINUOUS
 62
    7
 10
242.4941724280221
 20
82.006689784695439
 11
242.9941724280221
 21
80.006689784695439
  0
LINE
  8
_0-1_
  6
CONTINUOUS
 62
    7
 10
242.9941724280221
 20
80.006689784695439
 11
243.9941724280221
 21
80.006689784695439
  0
LINE
  8
_0-1_
  6
CONTINUOUS
 62
    7
 10
243.9941724280221
 20
80.006689784695439
 11
244.49417242800769
 21
82.006689784637771
  0
LINE
  8
_0-1_
  6
CONTINUOUS
 62
    7
 10
244.49417242800769
 20
82.006689784637771
 11
245.4941724280221
 21
82.006689784637771
  0
LINE
  8
_0-1_
  6
CONTINUOUS
 62
    7
 10
245.49417242803651
 20
82.006689784695439
 11
245.99417242803651
 21
80.006689784695439
  0
LINE
  8
_0-1_
  6
CONTINUOUS
 62
    7
 10
245.99417242803651
 20
80.006689784695439
 11
246.99417242803651
 21
80.006689784695439
  0
LINE
  8
_0-1_
  6
CONTINUOUS
 62
    7
 10
246.99417242803651
 20
80.006689784695439
 11
247.4941724280221
 21
82.006689784637771
  0
LINE
  8
_0-1_
  6
CONTINUOUS
 62
    7
 10
247.4941724280221
 20
82.006689784637771
 11
248.49417242803651
 21
82.006689784637771
  0
LINE
  8
_0-1_
  6
CONTINUOUS
 62
    7
 10
248.49417242805092
 20
82.006689784695439
 11
248.99417242805092
 21
80.006689784695439
  0
LINE
  8
_0-1_
  6
CONTINUOUS
 62
    7
 10
248.99417242805092
 20
80.006689784695439
 11
249.99417242805092
 21
80.006689784695439
  0
LINE
  8
_0-1_
  6
CONTINUOUS
 62
    7
 10
249.99417242805092
 20
80.006689784695439
 11
250.49417242803651
 21
82.006689784637771
  0
LINE
  8
_0-1_
  6
CONTINUOUS
 62
    7
 10
250.49417242803651
 20
82.006689784637771
 11
251.49417242805092
 21
82.006689784637771
  0
LINE
  8
_0-1_
  6
CONTINUOUS
 62
    7
 10
251.49417242806533
 20
82.006689784695439
 11
251.99417242806533
 21
80.006689784695439
  0
LINE
  8
_0-1_
  6
CONTINUOUS
 62
    7
 10
251.99417242806533
 20
80.006689784695439
 11
252.99417242806533
 21
80.006689784695439
  0
LINE
  8
_0-1_
  6
CONTINUOUS
 62
    7
 10
252.99417242806533
 20
80.006689784695439
 11
253.49417242805092
 21
82.006689784637771
  0
LINE
  8
_0-1_
  6
CONTINUOUS
 62
    7
 10
253.49417242805092
 20
82.006689784637771
 11
254.49417242806533
 21
82.006689784637771
  0
LINE
  8
_0-1_
  6
CONTINUOUS
 62
    7
 10
254.49417242807974
 20
82.006689784695439
 11
254.99417242807974
 21
80.006689784695439
  0
LINE
  8
_0-1_
  6
CONTINUOUS
 62
    7
 10
254.99417242807974
 20
80.006689784695439
 11
255.99417242807974
 21
80.006689784695439
  0
LINE
  8
_0-1_
  6
CONTINUOUS
 62
    7
 10
255.99417242807974
 20
80.006689784695439
 11
256.49417242806533
 21
82.006689784637771
  0
LINE
  8
_0-1_
  6
CONTINUOUS
 62
    7
 10
256.49417242806533
 20
82.006689784637771
 11
257.49417242807976
 21
82.006689784637771
  0
LINE
  8
_0-1_
  6
CONTINUOUS
 62
    7
 10
257.49417242809415
 20
82.006689784695439
 11
257.99417242809415
 21
80.006689784695439
  0
LINE
  8
_0-1_
  6
CONTINUOUS
 62
    7
 10
257.99417242809415
 20
80.006689784695439
 11
258.99417242809415
 21
80.006689784695439
  0
LINE
  8
_0-1_
  6
CONTINUOUS
 62
    7
 10
258.99417242809415
 20
80.006689784695439
 11
259.49417242807976
 21
82.006689784637771
  0
LINE
  8
_0-1_
  6
CONTINUOUS
 62
    7
 10
259.49417242807976
 20
82.006689784637771
 11
260.49417242809415
 21
82.006689784637771
  0
LINE
  8
_0-1_
  6
CONTINUOUS
 62
    7
 10
260.49417242810858
 20
82.006689784695439
 11
260.99417242810858
 21
80.006689784695439
  0
LINE
  8
_0-1_
  6
CONTINUOUS
 62
    7
 10
260.99417242810858
 20
80.006689784695439
 11
261.99417242810858
 21
80.006689784695439
  0
LINE
  8
_0-1_
  6
CONTINUOUS
 62
    7
 10
261.99417242810858
 20
80.006689784695439
 11
262.49417242809415
 21
82.006689784637771
  0
LINE
  8
_0-1_
  6
CONTINUOUS
 62
    7
 10
262.49417242809415
 20
82.006689784637771
 11
263.49417242810858
 21
82.006689784637771
  0
LINE
  8
_0-1_
  6
CONTINUOUS
 62
    7
 10
263.49417242812297
 20
82.006689784695439
 11
263.99417242812297
 21
80.006689784695439
  0
LINE
  8
_0-1_
  6
CONTINUOUS
 62
    7
 10
263.99417242812297
 20
80.006689784695439
 11
264.99417242812297
 21
80.006689784695439
  0
LINE
  8
_0-1_
  6
CONTINUOUS
 62
    7
 10
264.99417242812297
 20
80.006689784695439
 11
265.49417242810858
 21
82.006689784637771
  0
LINE
  8
_0-1_
  6
CONTINUOUS
 62
    7
 10
265.49417242810858
 20
82.006689784637771
 11
266.49417242812297
 21
82.006689784637771
  0
LINE
  8
_0-1_
  6
CONTINUOUS
 62
    7
 10
266.4941724281374
 20
82.006689784695439
 11
266.9941724281374
 21
80.006689784695439
  0
LINE
  8
_0-1_
  6
CONTINUOUS
 62
    7
 10
266.9941724281374
 20
80.006689784695439
 11
267.9941724281374
 21
80.006689784695439
  0
LINE
  8
_0-1_
  6
CONTINUOUS
 62
    7
 10
267.9941724281374
 20
80.006689784695439
 11
268.49417242812297
 21
82.006689784637771
  0
LINE
  8
_0-1_
  6
CONTINUOUS
 62
    7
 10
268.49417242812297
 20
82.006689784637771
 11
269.4941724281374
 21
82.006689784637771
  0
LINE
  8
_0-1_
  6
CONTINUOUS
 62
    7
 10
269.49417242815178
 20
82.006689784695439
 11
269.99417242815178
 21
80.006689784695439
  0
LINE
  8
_0-1_
  6
CONTINUOUS
 62
    7
 10
269.99417242815178
 20
80.006689784695439
 11
270.99417242815178
 21
80.006689784695439
  0
LINE
  8
_0-1_
  6
CONTINUOUS
 62
    7
 10
270.99417242815178
 20
80.006689784695439
 11
271.4941724281374
 21
82.006689784637771
  0
LINE
  8
_0-1_
  6
CONTINUOUS
 62
    7
 10
271.4941724281374
 20
82.006689784637771
 11
272.49417242815178
 21
82.006689784637771
  0
LINE
  8
_0-1_
  6
CONTINUOUS
 62
    7
 10
272.49417242816622
 20
82.006689784695439
 11
272.99417242816622
 21
80.006689784695439
  0
LINE
  8
_0-1_
  6
CONTINUOUS
 62
    7
 10
272.99417242816622
 20
80.006689784695439
 11
273.99417242816622
 21
80.006689784695439
  0
LINE
  8
_0-1_
  6
CONTINUOUS
 62
    7
 10
273.99417242816622
 20
80.006689784695439
 11
274.49417242815178
 21
82.006689784637771
  0
LINE
  8
_0-1_
  6
CONTINUOUS
 62
    7
 10
274.49417242815178
 20
82.006689784637771
 11
275.49417242816617
 21
82.006689784637771
  0
LINE
  8
_0-1_
  6
CONTINUOUS
 62
    7
 10
275.4941724281806
 20
82.006689784695439
 11
275.9941724281806
 21
80.006689784695439
  0
LINE
  8
_0-1_
  6
CONTINUOUS
 62
    7
 10
275.9941724281806
 20
80.006689784695439
 11
276.9941724281806
 21
80.006689784695439
  0
LINE
  8
_0-1_
  6
CONTINUOUS
 62
    7
 10
276.9941724281806
 20
80.006689784695439
 11
277.49417242816617
 21
82.006689784637771
  0
LINE
  8
_0-1_
  6
CONTINUOUS
 62
    7
 10
277.49417242816617
 20
82.006689784637771
 11
278.4941724281806
 21
82.006689784637771
  0
LINE
  8
_0-1_
  6
CONTINUOUS
 62
    7
 10
278.49417242819504
 20
82.006689784695439
 11
278.99417242819504
 21
80.006689784695439
  0
LINE
  8
_0-1_
  6
CONTINUOUS
 62
    7
 10
278.99417242819504
 20
80.006689784695439
 11
279.99417242819504
 21
80.006689784695439
  0
LINE
  8
_0-1_
  6
CONTINUOUS
 62
    7
 10
279.99417242819504
 20
80.006689784695439
 11
280.4941724281806
 21
82.006689784637771
  0
LINE
  8
_0-1_
  6
CONTINUOUS
 62
    7
 10
280.4941724281806
 20
82.006689784637771
 11
281.49417242819504
 21
82.006689784637771
  0
LINE
  8
_0-1_
  6
CONTINUOUS
 62
    7
 10
281.49417242820942
 20
82.006689784695439
 11
281.99417242820942
 21
80.006689784695439
  0
LINE
  8
_0-1_
  6
CONTINUOUS
 62
    7
 10
281.99417242820942
 20
80.006689784695439
 11
282.99417242820942
 21
80.006689784695439
  0
LINE
  8
_0-1_
  6
CONTINUOUS
 62
    7
 10
282.99417242820942
 20
80.006689784695439
 11
283.49417242819504
 21
82.006689784637771
  0
LINE
  8
_0-1_
  6
CONTINUOUS
 62
    7
 10
283.49417242819504
 20
82.006689784637771
 11
284.49417242820942
 21
82.006689784637771
  0
LINE
  8
_0-1_
  6
CONTINUOUS
 62
    7
 10
284.49417242822381
 20
82.006689784695439
 11
284.99417242822381
 21
80.006689784695439
  0
LINE
  8
_0-1_
  6
CONTINUOUS
 62
    7
 10
284.99417242822381
 20
80.006689784695439
 11
285.99417242822381
 21
80.006689784695439
  0
LINE
  8
_0-1_
  6
CONTINUOUS
 62
    7
 10
285.99417242822381
 20
80.006689784695439
 11
286.49417242820942
 21
82.006689784637771
  0
LINE
  8
_0-1_
  6
CONTINUOUS
 62
    7
 10
286.49417242820942
 20
82.006689784637771
 11
287.49417242822381
 21
82.006689784637771
  0
LINE
  8
_0-1_
  6
CONTINUOUS
 62
    7
 10
287.49417242823824
 20
82.006689784695439
 11
287.99417242823824
 21
80.006689784695439
  0
LINE
  8
_0-1_
  6
CONTINUOUS
 62
    7
 10
287.99417242823824
 20
80.006689784695439
 11
288.99417242823824
 21
80.006689784695439
  0
LINE
  8
_0-1_
  6
CONTINUOUS
 62
    7
 10
288.99417242823824
 20
80.006689784695439
 11
289.49417242822381
 21
82.006689784637771
  0
LINE
  8
_0-1_
  6
CONTINUOUS
 62
    7
 10
289.49417242822381
 20
82.006689784637771
 11
290.49417242823824
 21
82.006689784637771
  0
LINE
  8
_0-1_
  6
CONTINUOUS
 62
    7
 10
290.49417242825263
 20
82.006689784695439
 11
290.99417242825263
 21
80.006689784695439
  0
LINE
  8
_0-1_
  6
CONTINUOUS
 62
    7
 10
290.99417242825263
 20
80.006689784695439
 11
291.99417242825263
 21
80.006689784695439
  0
LINE
  8
_0-1_
  6
CONTINUOUS
 62
    7
 10
291.99417242825263
 20
80.006689784695439
 11
292.49417242823824
 21
82.006689784637771
  0
LINE
  8
_0-1_
  6
DASHED1
 62
    3
 10
204.59428328318654
 20
80.006689784695439
 11
204.59428328318654
 21
75.006689784638226
  0
LINE
  8
_0-1_
  6
DASHED1
 62
    3
 10
245.59428328318654
 20
81.606246364095298
 11
245.59428328318654
 21
75.006689784638226
  0
POINT
  8
_0-9__
 62
    4
 10
124.49428342753508
 20
75.00668978463824
  0
POINT
  8
_0-9__
 62
    4
 10
124.49428342753508
 20
113.00668978470684
  0
LINE
  8
_0-9__
  6
CONTINUOUS
 62
    4
 10
123.49428342753508
 20
75.00668978463824
 11
161.59428328318651
 21
75.00668978463824
  0
LINE
  8
_0-9__
  6
CONTINUOUS
 62
    4
 10
123.49428342753508
 20
113.00668978470684
 11
144.76535124177434
 21
113.00668978470684
  0
LINE
  8
_0-9__
  6
CONTINUOUS
 62
    4
 10
124.49428342753508
 20
75.00668978463824
 11
124.49428342753508
 21
113.00668978470684
  0
TEXT
  8
_0-9__
 62
    3
 10
123.99428342753508
 20
91.881689784672545
 40
5
 41
0.8
 50
90
  1
38
  0
POINT
  8
_0-9__
 62
    4
 10
330.49428342753509
 20
75.006689784638226
  0
POINT
  8
_0-9__
 62
    4
 10
330.49428342753509
 20
98.006689784694856
  0
LINE
  8
_0-9__
  6
CONTINUOUS
 62
    4
 10
331.49428342753509
 20
75.006689784638226
 11
292.3942835387345
 21
75.006689784638226
  0
LINE
  8
_0-9__
  6
CONTINUOUS
 62
    4
 10
331.49428342753509
 20
98.006689784694856
 11
318.49428342753509
 21
98.006689784694856
  0
LINE
  8
_0-9__
  6
CONTINUOUS
 62
    4
 10
330.49428342753509
 20
75.006689784638226
 11
330.49428342753509
 21
98.006689784694856
  0
TEXT
  8
_0-9__
 62
    3
 10
329.99428342753509
 20
84.381689784666548
 40
5
 41
0.8
 50
90
  1
23
  0
POINT
  8
_0-9__
 62
    4
 10
132.49428342753509
 20
63.006689784638226
  0
POINT
  8
_0-9__
 62
    4
 10
162.59428328318654
 20
63.006689784638226
  0
LINE
  8
_0-9__
  6
CONTINUOUS
 62
    4
 10
132.49428342753509
 20
62.006689784638226
 11
132.49428342753509
 21
94.406689782521568
  0
LINE
  8
_0-9__
  6
CONTINUOUS
 62
    4
 10
162.59428328318654
 20
62.006689784638226
 11
162.59428328318654
 21
74.00668978463824
  0
LINE
  8
_0-9__
  6
CONTINUOUS
 62
    4
 10
132.49428342753509
 20
63.006689784638226
 11
162.59428328318654
 21
63.006689784638226
  0
TEXT
  8
_0-9__
 62
    3
 10
143.16928335536079
 20
63.506689784638226
 40
5
 41
0.8
 50
0
  1
30.1
  0
POINT
  8
_0-9__
 62
    4
 10
291.3942835387345
 20
63.006689784638226
  0
LINE
  8
_0-9__
  6
CONTINUOUS
 62
    4
 10
291.3942835387345
 20
62.006689784638226
 11
291.3942835387345
 21
74.006689784638226
  0
LINE
  8
_0-9__
  6
CONTINUOUS
 62
    4
 10
162.59428328318654
 20
63.006689784638226
 11
291.3942835387345
 21
63.006689784638226
  0
TEXT
  8
_0-9__
 62
    3
 10
221.49428341096052
 20
63.506689784638226
 40
5
 41
0.8
 50
0
  1
128.8
  0
POINT
  8
_0-9__
 62
    4
 10
318.49428342753509
 20
63.006689784638226
  0
LINE
  8
_0-9__
  6
CONTINUOUS
 62
    4
 10
318.49428342753509
 20
62.006689784638226
 11
318.49428342753509
 21
93.806689784539088
  0
LINE
  8
_0-9__
  6
CONTINUOUS
 62
    4
 10
291.3942835387345
 20
63.006689784638226
 11
318.49428342753509
 21
63.006689784638226
  0
TEXT
  8
_0-9__
 62
    3
 10
300.56928348313477
 20
63.506689784638226
 40
5
 41
0.8
 50
0
  1
27.1
  0
POINT
  8
_0-9__
 62
    4
 10
132.49428342753509
 20
121.00668978470684
  0
POINT
  8
_0-9__
 62
    4
 10
147.99428330983534
 20
121.00668978470684
  0
LINE
  8
_0-9__
  6
CONTINUOUS
 62
    4
 10
132.49428342753509
 20
122.00668978470684
 11
132.49428342753509
 21
102.80668978226385
  0
LINE
  8
_0-9__
  6
CONTINUOUS
 62
    4
 10
147.99428330983534
 20
122.00668978470684
 11
147.99428330983534
 21
114.00668978476455
  0
LINE
  8
_0-9__
  6
CONTINUOUS
 62
    4
 10
132.49428342753509
 20
121.00668978470684
 11
147.99428330983534
 21
121.00668978470684
  0
TEXT
  8
_0-9__
 62
    3
 10
135.86928336868522
 20
121.50668978470684
 40
5
 41
0.8
 50
0
  1
15.5
  0
POINT
  8
_0-9__
 62
    4
 10
315.49428342753509
 20
106.00668978469486
  0
POINT
  8
_0-9__
 62
    4
 10
318.49428342753509
 20
106.00668978469486
  0
LINE
  8
_0-9__
  6
CONTINUOUS
 62
    4
 10
315.49428342753509
 20
107.00668978469486
 11
315.49428342753509
 21
99.006689784694856
  0
LINE
  8
_0-9__
  6
CONTINUOUS
 62
    4
 10
318.49428342753509
 20
107.00668978469486
 11
318.49428342753509
 21
98.006689784694856
  0
LINE
  8
_0-9__
  6
CONTINUOUS
 62
    4
 10
315.49428342753509
 20
106.00668978469486
 11
318.49428342753509
 21
106.00668978469486
  0
TEXT
  8
_0-9__
 62
    3
 10
315.99428342753509
 20
106.50668978469486
 40
5
 41
0.8
 50
0
  1
3
  0
POINT
  8
_0-9__
 62
    4
 10
132.49428342753509
 20
55.006689784638226
  0
POINT
  8
_0-9__
 62
    4
 10
318.49428342753509
 20
55.006689784638226
  0
LINE
  8
_0-9__
  6
CONTINUOUS
 62
    4
 10
132.49428342753509
 20
54.006689784638226
 11
132.49428342753509
 21
62.006689784638226
  0
LINE
  8
_0-9__
  6
CONTINUOUS
 62
    4
 10
318.49428342753509
 20
54.006689784638226
 11
318.49428342753509
 21
62.006689784638226
  0
LINE
  8
_0-9__
  6
CONTINUOUS
 62
    4
 10
132.49428342753509
 20
55.006689784638226
 11
318.49428342753509
 21
55.006689784638226
  0
TEXT
  8
_0-9__
 62
    3
 10
222.24428342753509
 20
55.506689784638226
 40
5
 41
0.8
 50
0
  1
186
  0
LINE
  8
_0-1_
  6
CONTINUOUS
 62
    7
 10
209.59428328318654
 20
191.58016963647242
 11
240.59428328318654
 21
191.58016963647242
  0
ARC
  8
_0-1_
  6
CONTINUOUS
 62
    7
 10
240.59428328318654
 20
196.58016963647242
 40
5
 50
270
 51
90
  0
LINE
  8
_0-1_
  6
CONTINUOUS
 62
    7
 10
209.59428328318654
 20
201.58016963647242
 11
240.59428328318654
 21
201.58016963647242
  0
ARC
  8
_0-1_
  6
CONTINUOUS
 62
    7
 10
209.59428328318654
 20
196.58016963647242
 40
5
 50
90
 51
270
  0
LINE
  8
_0-1_
  6
CONTINUOUS
 62
    7
 10
209.59428328318654
 20
191.58016963647242
 11
240.59428328318654
 21
191.58016963647242
  0
LINE
  8
_0-1_
  6
CONTINUOUS
 62
    7
 10
209.59428328318654
 20
201.58016963647242
 11
240.59428328318654
 21
201.58016963647242
  0
ARC
  8
_0-1_
  6
CONTINUOUS
 62
    7
 10
209.59428328318654
 20
196.58016963647242
 40
5
 50
90
 51
270
  0
ARC
  8
_0-1_
  6
CONTINUOUS
 62
    7
 10
240.59428328318654
 20
196.58016963647242
 40
5
 50
270
 51
90
  0
LINE
  8
_0-1_
  6
CONTINUOUS
 62
    7
 10
209.59428328318654
 20
191.58016963647242
 11
240.59428328318654
 21
191.58016963647242
  0
LINE
  8
_0-1_
  6
CONTINUOUS
 62
    7
 10
209.59428328318654
 20
201.58016963647242
 11
240.59428328318654
 21
201.58016963647242
  0
ARC
  8
_0-1_
  6
CONTINUOUS
 62
    7
 10
209.59428328318654
 20
196.58016963647242
 40
5
 50
90
 51
270
  0
ARC
  8
_0-1_
  6
CONTINUOUS
 62
    7
 10
240.59428328318654
 20
196.58016963647242
 40
5
 50
270
 51
90
  0
LINE
  8
_0-1_
  6
CONTINUOUS
 62
    7
 10
132.49428342753509
 20
166.58016963647242
 11
318.49428342753509
 21
166.58016963647242
  0
LINE
  8
_0-1_
  6
CONTINUOUS
 62
    7
 10
132.49428342753509
 20
226.58016963647242
 11
132.49428342753509
 21
166.58016963647242
  0
LINE
  8
_0-1_
  6
CONTINUOUS
 62
    7
 10
132.49428342753509
 20
226.58016963647242
 11
318.49428342753509
 21
226.58016963647242
  0
LINE
  8
_0-1_
  6
CONTINUOUS
 62
    7
 10
318.49428342753509
 20
226.58016963647242
 11
318.49428342753509
 21
166.58016963647242
  0
LINE
  8
_0-1_
  6
CONTINUOUS
 62
    7
 10
147.99428330753508
 20
226.58016963647242
 11
147.99428330753508
 21
166.58016963647242
  0
LINE
  8
_0-1_
  6
CONTINUOUS
 62
    7
 10
315.49428342753509
 20
226.58016963647242
 11
315.49428342753509
 21
166.58016963647242
  0
LINE
  8
_0-1_
  6
CONTINUOUS
 62
    7
 10
308.75164142753511
 20
226.58016963647242
 11
308.75164142753511
 21
166.58016963647242
  0
LINE
  8
_0-1_
  6
CONTINUOUS
 62
    7
 10
303.03742942753507
 20
226.58016963647242
 11
303.03742942753507
 21
166.58016963647242
  0
LINE
  8
_0-1_
  6
CONTINUOUS
 62
    7
 10
295.73743042753506
 20
226.58016963647242
 11
295.73743042753506
 21
166.58016963647242
  0
LINE
  8
_0-1_
  6
CONTINUOUS
 62
    7
 10
292.49417242753509
 20
226.58016963647242
 11
292.49417242753509
 21
166.58016963647242
  0
LINE
  8
_0-1_
  6
CONTINUOUS
 62
    7
 10
152.3653506165351
 20
226.58016963647242
 11
152.3653506165351
 21
166.58016963647242
  0
LINE
  8
_0-1_
  6
CONTINUOUS
 62
    7
 10
159.6653506195351
 20
226.58016963647242
 11
159.6653506195351
 21
166.58016963647242
  0
LINE
  8
_0-1_
  6
CONTINUOUS
 62
    7
 10
161.49417242753509
 20
226.58016963647242
 11
161.49417242753509
 21
166.58016963647242
  0
LINE
  8
_0-1_
  6
CONTINUOUS
 62
    7
 10
163.49417242753509
 20
226.58016963647242
 11
163.49417242753509
 21
166.58016963647242
  0
LINE
  8
_0-1_
  6
CONTINUOUS
 62
    7
 10
164.49417242753509
 20
226.58016963647242
 11
164.49417242753509
 21
166.58016963647242
  0
LINE
  8
_0-1_
  6
CONTINUOUS
 62
  136
 10
162.99417242763511
 20
226.58016963647242
 11
162.99417242763511
 21
166.58016963647242
  0
LINE
  8
_0-1_
  6
CONTINUOUS
 62
  136
 10
161.99417242763511
 20
226.58016963647242
 11
161.99417242763511
 21
166.58016963647242
  0
LINE
  8
_0-1_
  6
CONTINUOUS
 62
    7
 10
166.4941724275495
 20
226.58016963647242
 11
166.4941724275495
 21
166.58016963647242
  0
LINE
  8
_0-1_
  6
CONTINUOUS
 62
    7
 10
167.4941724275495
 20
226.58016963647242
 11
167.4941724275495
 21
166.58016963647242
  0
LINE
  8
_0-1_
  6
CONTINUOUS
 62
  136
 10
165.99417242764952
 20
226.58016963647242
 11
165.99417242764952
 21
166.58016963647242
  0
LINE
  8
_0-1_
  6
CONTINUOUS
 62
  136
 10
164.99417242764952
 20
226.58016963647242
 11
164.99417242764952
 21
166.58016963647242
  0
LINE
  8
_0-1_
  6
CONTINUOUS
 62
    7
 10
169.49417242756391
 20
226.58016963647242
 11
169.49417242756391
 21
166.58016963647242
  0
LINE
  8
_0-1_
  6
CONTINUOUS
 62
    7
 10
170.49417242756391
 20
226.58016963647242
 11
170.49417242756391
 21
166.58016963647242
  0
LINE
  8
_0-1_
  6
CONTINUOUS
 62
  136
 10
168.99417242766393
 20
226.58016963647242
 11
168.99417242766393
 21
166.58016963647242
  0
LINE
  8
_0-1_
  6
CONTINUOUS
 62
  136
 10
167.99417242766393
 20
226.58016963647242
 11
167.99417242766393
 21
166.58016963647242
  0
LINE
  8
_0-1_
  6
CONTINUOUS
 62
    7
 10
172.49417242757832
 20
226.58016963647242
 11
172.49417242757832
 21
166.58016963647242
  0
LINE
  8
_0-1_
  6
CONTINUOUS
 62
    7
 10
173.49417242757832
 20
226.58016963647242
 11
173.49417242757832
 21
166.58016963647242
  0
LINE
  8
_0-1_
  6
CONTINUOUS
 62
  136
 10
171.99417242767834
 20
226.58016963647242
 11
171.99417242767834
 21
166.58016963647242
  0
LINE
  8
_0-1_
  6
CONTINUOUS
 62
  136
 10
170.99417242767834
 20
226.58016963647242
 11
170.99417242767834
 21
166.58016963647242
  0
LINE
  8
_0-1_
  6
CONTINUOUS
 62
    7
 10
175.49417242759273
 20
226.58016963647242
 11
175.49417242759273
 21
166.58016963647242
  0
LINE
  8
_0-1_
  6
CONTINUOUS
 62
    7
 10
176.49417242759273
 20
226.58016963647242
 11
176.49417242759273
 21
166.58016963647242
  0
LINE
  8
_0-1_
  6
CONTINUOUS
 62
  136
 10
174.99417242769275
 20
226.58016963647242
 11
174.99417242769275
 21
166.58016963647242
  0
LINE
  8
_0-1_
  6
CONTINUOUS
 62
  136
 10
173.99417242769275
 20
226.58016963647242
 11
173.99417242769275
 21
166.58016963647242
  0
LINE
  8
_0-1_
  6
CONTINUOUS
 62
    7
 10
178.49417242760714
 20
226.58016963647242
 11
178.49417242760714
 21
166.58016963647242
  0
LINE
  8
_0-1_
  6
CONTINUOUS
 62
    7
 10
179.49417242760714
 20
226.58016963647242
 11
179.49417242760714
 21
166.58016963647242
  0
LINE
  8
_0-1_
  6
CONTINUOUS
 62
  136
 10
177.99417242770716
 20
226.58016963647242
 11
177.99417242770716
 21
166.58016963647242
  0
LINE
  8
_0-1_
  6
CONTINUOUS
 62
  136
 10
176.99417242770716
 20
226.58016963647242
 11
176.99417242770716
 21
166.58016963647242
  0
LINE
  8
_0-1_
  6
CONTINUOUS
 62
    7
 10
181.49417242762155
 20
226.58016963647242
 11
181.49417242762155
 21
166.58016963647242
  0
LINE
  8
_0-1_
  6
CONTINUOUS
 62
    7
 10
182.49417242762155
 20
226.58016963647242
 11
182.49417242762155
 21
166.58016963647242
  0
LINE
  8
_0-1_
  6
CONTINUOUS
 62
  136
 10
180.99417242772157
 20
226.58016963647242
 11
180.99417242772157
 21
166.58016963647242
  0
LINE
  8
_0-1_
  6
CONTINUOUS
 62
  136
 10
179.99417242772157
 20
226.58016963647242
 11
179.99417242772157
 21
166.58016963647242
  0
LINE
  8
_0-1_
  6
CONTINUOUS
 62
    7
 10
184.49417242763596
 20
226.58016963647242
 11
184.49417242763596
 21
166.58016963647242
  0
LINE
  8
_0-1_
  6
CONTINUOUS
 62
    7
 10
185.49417242763596
 20
226.58016963647242
 11
185.49417242763596
 21
166.58016963647242
  0
LINE
  8
_0-1_
  6
CONTINUOUS
 62
  136
 10
183.99417242773598
 20
226.58016963647242
 11
183.99417242773598
 21
166.58016963647242
  0
LINE
  8
_0-1_
  6
CONTINUOUS
 62
  136
 10
182.99417242773598
 20
226.58016963647242
 11
182.99417242773598
 21
166.58016963647242
  0
LINE
  8
_0-1_
  6
CONTINUOUS
 62
    7
 10
187.49417242765037
 20
226.58016963647242
 11
187.49417242765037
 21
166.58016963647242
  0
LINE
  8
_0-1_
  6
CONTINUOUS
 62
    7
 10
188.49417242765037
 20
226.58016963647242
 11
188.49417242765037
 21
166.58016963647242
  0
LINE
  8
_0-1_
  6
CONTINUOUS
 62
  136
 10
186.99417242775039
 20
226.58016963647242
 11
186.99417242775039
 21
166.58016963647242
  0
LINE
  8
_0-1_
  6
CONTINUOUS
 62
  136
 10
185.99417242775039
 20
226.58016963647242
 11
185.99417242775039
 21
166.58016963647242
  0
LINE
  8
_0-1_
  6
CONTINUOUS
 62
    7
 10
190.49417242766478
 20
226.58016963647242
 11
190.49417242766478
 21
166.58016963647242
  0
LINE
  8
_0-1_
  6
CONTINUOUS
 62
    7
 10
191.49417242766478
 20
226.58016963647242
 11
191.49417242766478
 21
166.58016963647242
  0
LINE
  8
_0-1_
  6
CONTINUOUS
 62
  136
 10
189.99417242776479
 20
226.58016963647242
 11
189.99417242776479
 21
166.58016963647242
  0
LINE
  8
_0-1_
  6
CONTINUOUS
 62
  136
 10
188.99417242776479
 20
226.58016963647242
 11
188.99417242776479
 21
166.58016963647242
  0
LINE
  8
_0-1_
  6
CONTINUOUS
 62
    7
 10
193.49417242767919
 20
226.58016963647242
 11
193.49417242767919
 21
166.58016963647242
  0
LINE
  8
_0-1_
  6
CONTINUOUS
 62
    7
 10
194.49417242767919
 20
226.58016963647242
 11
194.49417242767919
 21
166.58016963647242
  0
LINE
  8
_0-1_
  6
CONTINUOUS
 62
  136
 10
192.9941724277792
 20
226.58016963647242
 11
192.9941724277792
 21
166.58016963647242
  0
LINE
  8
_0-1_
  6
CONTINUOUS
 62
  136
 10
191.9941724277792
 20
226.58016963647242
 11
191.9941724277792
 21
166.58016963647242
  0
LINE
  8
_0-1_
  6
CONTINUOUS
 62
    7
 10
196.4941724276936
 20
226.58016963647242
 11
196.4941724276936
 21
166.58016963647242
  0
LINE
  8
_0-1_
  6
CONTINUOUS
 62
    7
 10
197.4941724276936
 20
226.58016963647242
 11
197.4941724276936
 21
166.58016963647242
  0
LINE
  8
_0-1_
  6
CONTINUOUS
 62
  136
 10
195.99417242779361
 20
226.58016963647242
 11
195.99417242779361
 21
166.58016963647242
  0
LINE
  8
_0-1_
  6
CONTINUOUS
 62
  136
 10
194.99417242779361
 20
226.58016963647242
 11
194.99417242779361
 21
166.58016963647242
  0
LINE
  8
_0-1_
  6
CONTINUOUS
 62
    7
 10
199.49417242770801
 20
226.58016963647242
 11
199.49417242770801
 21
166.58016963647242
  0
LINE
  8
_0-1_
  6
CONTINUOUS
 62
    7
 10
200.49417242770801
 20
226.58016963647242
 11
200.49417242770801
 21
166.58016963647242
  0
LINE
  8
_0-1_
  6
CONTINUOUS
 62
  136
 10
198.99417242780802
 20
226.58016963647242
 11
198.99417242780802
 21
166.58016963647242
  0
LINE
  8
_0-1_
  6
CONTINUOUS
 62
  136
 10
197.99417242780802
 20
226.58016963647242
 11
197.99417242780802
 21
166.58016963647242
  0
LINE
  8
_0-1_
  6
CONTINUOUS
 62
    7
 10
202.49417242772242
 20
226.58016963647242
 11
202.49417242772242
 21
166.58016963647242
  0
LINE
  8
_0-1_
  6
CONTINUOUS
 62
    7
 10
203.49417242772242
 20
226.58016963647242
 11
203.49417242772242
 21
166.58016963647242
  0
LINE
  8
_0-1_
  6
CONTINUOUS
 62
  136
 10
201.99417242782243
 20
226.58016963647242
 11
201.99417242782243
 21
166.58016963647242
  0
LINE
  8
_0-1_
  6
CONTINUOUS
 62
  136
 10
200.99417242782243
 20
226.58016963647242
 11
200.99417242782243
 21
166.58016963647242
  0
LINE
  8
_0-1_
  6
CONTINUOUS
 62
  136
 10
203.99417242783684
 20
226.58016963647242
 11
203.99417242783684
 21
166.58016963647242
  0
LINE
  8
_0-1_
  6
CONTINUOUS
 62
    7
 10
247.49417242793857
 20
226.58016963647242
 11
247.49417242793857
 21
166.58016963647242
  0
LINE
  8
_0-1_
  6
CONTINUOUS
 62
    7
 10
248.49417242793857
 20
226.58016963647242
 11
248.49417242793857
 21
166.58016963647242
  0
LINE
  8
_0-1_
  6
CONTINUOUS
 62
  136
 10
246.99417242803855
 20
226.58016963647242
 11
246.99417242803855
 21
166.58016963647242
  0
LINE
  8
_0-1_
  6
CONTINUOUS
 62
  136
 10
245.99417242803855
 20
226.58016963647242
 11
245.99417242803855
 21
166.58016963647242
  0
LINE
  8
_0-1_
  6
CONTINUOUS
 62
    7
 10
250.49417242795298
 20
226.58016963647242
 11
250.49417242795298
 21
166.58016963647242
  0
LINE
  8
_0-1_
  6
CONTINUOUS
 62
    7
 10
251.49417242795298
 20
226.58016963647242
 11
251.49417242795298
 21
166.58016963647242
  0
LINE
  8
_0-1_
  6
CONTINUOUS
 62
  136
 10
249.99417242805299
 20
226.58016963647242
 11
249.99417242805299
 21
166.58016963647242
  0
LINE
  8
_0-1_
  6
CONTINUOUS
 62
  136
 10
248.99417242805299
 20
226.58016963647242
 11
248.99417242805299
 21
166.58016963647242
  0
LINE
  8
_0-1_
  6
CONTINUOUS
 62
    7
 10
253.49417242796738
 20
226.58016963647242
 11
253.49417242796738
 21
166.58016963647242
  0
LINE
  8
_0-1_
  6
CONTINUOUS
 62
    7
 10
254.49417242796738
 20
226.58016963647242
 11
254.49417242796738
 21
166.58016963647242
  0
LINE
  8
_0-1_
  6
CONTINUOUS
 62
  136
 10
252.99417242806737
 20
226.58016963647242
 11
252.99417242806737
 21
166.58016963647242
  0
LINE
  8
_0-1_
  6
CONTINUOUS
 62
  136
 10
251.99417242806737
 20
226.58016963647242
 11
251.99417242806737
 21
166.58016963647242
  0
LINE
  8
_0-1_
  6
CONTINUOUS
 62
    7
 10
256.49417242798177
 20
226.58016963647242
 11
256.49417242798177
 21
166.58016963647242
  0
LINE
  8
_0-1_
  6
CONTINUOUS
 62
    7
 10
257.49417242798177
 20
226.58016963647242
 11
257.49417242798177
 21
166.58016963647242
  0
LINE
  8
_0-1_
  6
CONTINUOUS
 62
  136
 10
255.99417242808181
 20
226.58016963647242
 11
255.99417242808181
 21
166.58016963647242
  0
LINE
  8
_0-1_
  6
CONTINUOUS
 62
  136
 10
254.99417242808181
 20
226.58016963647242
 11
254.99417242808181
 21
166.58016963647242
  0
LINE
  8
_0-1_
  6
CONTINUOUS
 62
    7
 10
259.4941724279962
 20
226.58016963647242
 11
259.4941724279962
 21
166.58016963647242
  0
LINE
  8
_0-1_
  6
CONTINUOUS
 62
    7
 10
260.4941724279962
 20
226.58016963647242
 11
260.4941724279962
 21
166.58016963647242
  0
LINE
  8
_0-1_
  6
CONTINUOUS
 62
  136
 10
258.99417242809619
 20
226.58016963647242
 11
258.99417242809619
 21
166.58016963647242
  0
LINE
  8
_0-1_
  6
CONTINUOUS
 62
  136
 10
257.99417242809619
 20
226.58016963647242
 11
257.99417242809619
 21
166.58016963647242
  0
LINE
  8
_0-1_
  6
CONTINUOUS
 62
    7
 10
262.49417242801064
 20
226.58016963647242
 11
262.49417242801064
 21
166.58016963647242
  0
LINE
  8
_0-1_
  6
CONTINUOUS
 62
    7
 10
263.49417242801064
 20
226.58016963647242
 11
263.49417242801064
 21
166.58016963647242
  0
LINE
  8
_0-1_
  6
CONTINUOUS
 62
  136
 10
261.99417242811063
 20
226.58016963647242
 11
261.99417242811063
 21
166.58016963647242
  0
LINE
  8
_0-1_
  6
CONTINUOUS
 62
  136
 10
260.99417242811063
 20
226.58016963647242
 11
260.99417242811063
 21
166.58016963647242
  0
LINE
  8
_0-1_
  6
CONTINUOUS
 62
    7
 10
265.49417242802502
 20
226.58016963647242
 11
265.49417242802502
 21
166.58016963647242
  0
LINE
  8
_0-1_
  6
CONTINUOUS
 62
    7
 10
266.49417242802502
 20
226.58016963647242
 11
266.49417242802502
 21
166.58016963647242
  0
LINE
  8
_0-1_
  6
CONTINUOUS
 62
  136
 10
264.99417242812501
 20
226.58016963647242
 11
264.99417242812501
 21
166.58016963647242
  0
LINE
  8
_0-1_
  6
CONTINUOUS
 62
  136
 10
263.99417242812501
 20
226.58016963647242
 11
263.99417242812501
 21
166.58016963647242
  0
LINE
  8
_0-1_
  6
CONTINUOUS
 62
    7
 10
268.49417242803946
 20
226.58016963647242
 11
268.49417242803946
 21
166.58016963647242
  0
LINE
  8
_0-1_
  6
CONTINUOUS
 62
    7
 10
269.49417242803946
 20
226.58016963647242
 11
269.49417242803946
 21
166.58016963647242
  0
LINE
  8
_0-1_
  6
CONTINUOUS
 62
  136
 10
267.99417242813945
 20
226.58016963647242
 11
267.99417242813945
 21
166.58016963647242
  0
LINE
  8
_0-1_
  6
CONTINUOUS
 62
  136
 10
266.99417242813945
 20
226.58016963647242
 11
266.99417242813945
 21
166.58016963647242
  0
LINE
  8
_0-1_
  6
CONTINUOUS
 62
    7
 10
271.49417242805384
 20
226.58016963647242
 11
271.49417242805384
 21
166.58016963647242
  0
LINE
  8
_0-1_
  6
CONTINUOUS
 62
    7
 10
272.49417242805384
 20
226.58016963647242
 11
272.49417242805384
 21
166.58016963647242
  0
LINE
  8
_0-1_
  6
CONTINUOUS
 62
  136
 10
270.99417242815383
 20
226.58016963647242
 11
270.99417242815383
 21
166.58016963647242
  0
LINE
  8
_0-1_
  6
CONTINUOUS
 62
  136
 10
269.99417242815383
 20
226.58016963647242
 11
269.99417242815383
 21
166.58016963647242
  0
LINE
  8
_0-1_
  6
CONTINUOUS
 62
    7
 10
274.49417242806828
 20
226.58016963647242
 11
274.49417242806828
 21
166.58016963647242
  0
LINE
  8
_0-1_
  6
CONTINUOUS
 62
    7
 10
275.49417242806828
 20
226.58016963647242
 11
275.49417242806828
 21
166.58016963647242
  0
LINE
  8
_0-1_
  6
CONTINUOUS
 62
  136
 10
273.99417242816827
 20
226.58016963647242
 11
273.99417242816827
 21
166.58016963647242
  0
LINE
  8
_0-1_
  6
CONTINUOUS
 62
  136
 10
272.99417242816827
 20
226.58016963647242
 11
272.99417242816827
 21
166.58016963647242
  0
LINE
  8
_0-1_
  6
CONTINUOUS
 62
    7
 10
277.49417242808266
 20
226.58016963647242
 11
277.49417242808266
 21
166.58016963647242
  0
LINE
  8
_0-1_
  6
CONTINUOUS
 62
    7
 10
278.49417242808266
 20
226.58016963647242
 11
278.49417242808266
 21
166.58016963647242
  0
LINE
  8
_0-1_
  6
CONTINUOUS
 62
  136
 10
276.99417242818265
 20
226.58016963647242
 11
276.99417242818265
 21
166.58016963647242
  0
LINE
  8
_0-1_
  6
CONTINUOUS
 62
  136
 10
275.99417242818265
 20
226.58016963647242
 11
275.99417242818265
 21
166.58016963647242
  0
LINE
  8
_0-1_
  6
CONTINUOUS
 62
    7
 10
280.49417242809704
 20
226.58016963647242
 11
280.49417242809704
 21
166.58016963647242
  0
LINE
  8
_0-1_
  6
CONTINUOUS
 62
    7
 10
281.49417242809704
 20
226.58016963647242
 11
281.49417242809704
 21
166.58016963647242
  0
LINE
  8
_0-1_
  6
CONTINUOUS
 62
  136
 10
279.99417242819709
 20
226.58016963647242
 11
279.99417242819709
 21
166.58016963647242
  0
LINE
  8
_0-1_
  6
CONTINUOUS
 62
  136
 10
278.99417242819709
 20
226.58016963647242
 11
278.99417242819709
 21
166.58016963647242
  0
LINE
  8
_0-1_
  6
CONTINUOUS
 62
    7
 10
283.49417242811148
 20
226.58016963647242
 11
283.49417242811148
 21
166.58016963647242
  0
LINE
  8
_0-1_
  6
CONTINUOUS
 62
    7
 10
284.49417242811148
 20
226.58016963647242
 11
284.49417242811148
 21
166.58016963647242
  0
LINE
  8
_0-1_
  6
CONTINUOUS
 62
  136
 10
282.99417242821147
 20
226.58016963647242
 11
282.99417242821147
 21
166.58016963647242
  0
LINE
  8
_0-1_
  6
CONTINUOUS
 62
  136
 10
281.99417242821147
 20
226.58016963647242
 11
281.99417242821147
 21
166.58016963647242
  0
LINE
  8
_0-1_
  6
CONTINUOUS
 62
    7
 10
286.49417242812592
 20
226.58016963647242
 11
286.49417242812592
 21
166.58016963647242
  0
LINE
  8
_0-1_
  6
CONTINUOUS
 62
    7
 10
287.49417242812592
 20
226.58016963647242
 11
287.49417242812592
 21
166.58016963647242
  0
LINE
  8
_0-1_
  6
CONTINUOUS
 62
  136
 10
285.99417242822585
 20
226.58016963647242
 11
285.99417242822585
 21
166.58016963647242
  0
LINE
  8
_0-1_
  6
CONTINUOUS
 62
  136
 10
284.99417242822585
 20
226.58016963647242
 11
284.99417242822585
 21
166.58016963647242
  0
LINE
  8
_0-1_
  6
CONTINUOUS
 62
    7
 10
289.4941724281403
 20
226.58016963647242
 11
289.4941724281403
 21
166.58016963647242
  0
LINE
  8
_0-1_
  6
CONTINUOUS
 62
    7
 10
290.4941724281403
 20
226.58016963647242
 11
290.4941724281403
 21
166.58016963647242
  0
LINE
  8
_0-1_
  6
CONTINUOUS
 62
  136
 10
288.99417242824029
 20
226.58016963647242
 11
288.99417242824029
 21
166.58016963647242
  0
LINE
  8
_0-1_
  6
CONTINUOUS
 62
  136
 10
287.99417242824029
 20
226.58016963647242
 11
287.99417242824029
 21
166.58016963647242
  0
LINE
  8
_0-1_
  6
CONTINUOUS
 62
    7
 10
292.49417242815468
 20
226.58016963647242
 11
292.49417242815468
 21
166.58016963647242
  0
LINE
  8
_0-1_
  6
CONTINUOUS
 62
    7
 10
293.49417242815468
 20
226.58016963647242
 11
293.49417242815468
 21
166.58016963647242
  0
LINE
  8
_0-1_
  6
CONTINUOUS
 62
  136
 10
291.99417242825473
 20
226.58016963647242
 11
291.99417242825473
 21
166.58016963647242
  0
LINE
  8
_0-1_
  6
CONTINUOUS
 62
  136
 10
290.99417242825473
 20
226.58016963647242
 11
290.99417242825473
 21
166.58016963647242
  0
LINE
  8
_0-1_
  6
CONTINUOUS
 62
    7
 10
209.49417242775124
 20
226.58016963647242
 11
209.49417242775124
 21
201.58016963647242
  0
LINE
  8
_0-1_
  6
CONTINUOUS
 62
    7
 10
209.49417242775124
 20
191.58016963647242
 11
209.49417242775124
 21
166.58016963647242
  0
LINE
  8
_0-1_
  6
CONTINUOUS
 62
  136
 10
239.99417242800973
 20
226.58016963647242
 11
239.99417242800973
 21
201.58016963647242
  0
LINE
  8
_0-1_
  6
CONTINUOUS
 62
  136
 10
239.99417242800973
 20
191.58016963647242
 11
239.99417242800973
 21
166.58016963647242
  0
LINE
  8
_0-1_
  6
CONTINUOUS
 62
    7
 10
211.49417242776565
 20
226.58016963647242
 11
211.49417242776565
 21
201.58016963647242
  0
LINE
  8
_0-1_
  6
CONTINUOUS
 62
    7
 10
211.49417242776565
 20
191.58016963647242
 11
211.49417242776565
 21
166.58016963647242
  0
LINE
  8
_0-1_
  6
CONTINUOUS
 62
    7
 10
212.49417242776565
 20
226.58016963647242
 11
212.49417242776565
 21
201.58016963647242
  0
LINE
  8
_0-1_
  6
CONTINUOUS
 62
    7
 10
212.49417242776565
 20
191.58016963647242
 11
212.49417242776565
 21
166.58016963647242
  0
LINE
  8
_0-1_
  6
CONTINUOUS
 62
  136
 10
210.99417242786566
 20
226.58016963647242
 11
210.99417242786566
 21
201.58016963647242
  0
LINE
  8
_0-1_
  6
CONTINUOUS
 62
  136
 10
210.99417242786566
 20
191.58016963647242
 11
210.99417242786566
 21
166.58016963647242
  0
LINE
  8
_0-1_
  6
CONTINUOUS
 62
  136
 10
209.99417242786566
 20
226.58016963647242
 11
209.99417242786566
 21
201.58016963647242
  0
LINE
  8
_0-1_
  6
CONTINUOUS
 62
  136
 10
209.99417242786566
 20
191.58016963647242
 11
209.99417242786566
 21
166.58016963647242
  0
LINE
  8
_0-1_
  6
CONTINUOUS
 62
    7
 10
214.49417242778006
 20
226.58016963647242
 11
214.49417242778006
 21
201.58016963647242
  0
LINE
  8
_0-1_
  6
CONTINUOUS
 62
    7
 10
214.49417242778006
 20
191.58016963647242
 11
214.49417242778006
 21
166.58016963647242
  0
LINE
  8
_0-1_
  6
CONTINUOUS
 62
    7
 10
215.49417242778006
 20
226.58016963647242
 11
215.49417242778006
 21
201.58016963647242
  0
LINE
  8
_0-1_
  6
CONTINUOUS
 62
    7
 10
215.49417242778006
 20
191.58016963647242
 11
215.49417242778006
 21
166.58016963647242
  0
LINE
  8
_0-1_
  6
CONTINUOUS
 62
  136
 10
213.99417242788007
 20
226.58016963647242
 11
213.99417242788007
 21
201.58016963647242
  0
LINE
  8
_0-1_
  6
CONTINUOUS
 62
  136
 10
213.99417242788007
 20
191.58016963647242
 11
213.99417242788007
 21
166.58016963647242
  0
LINE
  8
_0-1_
  6
CONTINUOUS
 62
  136
 10
212.99417242788007
 20
226.58016963647242
 11
212.99417242788007
 21
201.58016963647242
  0
LINE
  8
_0-1_
  6
CONTINUOUS
 62
  136
 10
212.99417242788007
 20
191.58016963647242
 11
212.99417242788007
 21
166.58016963647242
  0
LINE
  8
_0-1_
  6
CONTINUOUS
 62
    7
 10
217.49417242779447
 20
226.58016963647242
 11
217.49417242779447
 21
201.58016963647242
  0
LINE
  8
_0-1_
  6
CONTINUOUS
 62
    7
 10
217.49417242779447
 20
191.58016963647242
 11
217.49417242779447
 21
166.58016963647242
  0
LINE
  8
_0-1_
  6
CONTINUOUS
 62
    7
 10
218.49417242779447
 20
226.58016963647242
 11
218.49417242779447
 21
201.58016963647242
  0
LINE
  8
_0-1_
  6
CONTINUOUS
 62
    7
 10
218.49417242779447
 20
191.58016963647242
 11
218.49417242779447
 21
166.58016963647242
  0
LINE
  8
_0-1_
  6
CONTINUOUS
 62
  136
 10
216.99417242789448
 20
226.58016963647242
 11
216.99417242789448
 21
201.58016963647242
  0
LINE
  8
_0-1_
  6
CONTINUOUS
 62
  136
 10
216.99417242789448
 20
191.58016963647242
 11
216.99417242789448
 21
166.58016963647242
  0
LINE
  8
_0-1_
  6
CONTINUOUS
 62
  136
 10
215.99417242789448
 20
226.58016963647242
 11
215.99417242789448
 21
201.58016963647242
  0
LINE
  8
_0-1_
  6
CONTINUOUS
 62
  136
 10
215.99417242789448
 20
191.58016963647242
 11
215.99417242789448
 21
166.58016963647242
  0
LINE
  8
_0-1_
  6
CONTINUOUS
 62
    7
 10
220.49417242780888
 20
226.58016963647242
 11
220.49417242780888
 21
201.58016963647242
  0
LINE
  8
_0-1_
  6
CONTINUOUS
 62
    7
 10
220.49417242780888
 20
191.58016963647242
 11
220.49417242780888
 21
166.58016963647242
  0
LINE
  8
_0-1_
  6
CONTINUOUS
 62
    7
 10
221.49417242780888
 20
226.58016963647242
 11
221.49417242780888
 21
201.58016963647242
  0
LINE
  8
_0-1_
  6
CONTINUOUS
 62
    7
 10
221.49417242780888
 20
191.58016963647242
 11
221.49417242780888
 21
166.58016963647242
  0
LINE
  8
_0-1_
  6
CONTINUOUS
 62
  136
 10
219.99417242790889
 20
226.58016963647242
 11
219.99417242790889
 21
201.58016963647242
  0
LINE
  8
_0-1_
  6
CONTINUOUS
 62
  136
 10
219.99417242790889
 20
191.58016963647242
 11
219.99417242790889
 21
166.58016963647242
  0
LINE
  8
_0-1_
  6
CONTINUOUS
 62
  136
 10
218.99417242790889
 20
226.58016963647242
 11
218.99417242790889
 21
201.58016963647242
  0
LINE
  8
_0-1_
  6
CONTINUOUS
 62
  136
 10
218.99417242790889
 20
191.58016963647242
 11
218.99417242790889
 21
166.58016963647242
  0
LINE
  8
_0-1_
  6
CONTINUOUS
 62
    7
 10
223.49417242782329
 20
226.58016963647242
 11
223.49417242782329
 21
201.58016963647242
  0
LINE
  8
_0-1_
  6
CONTINUOUS
 62
    7
 10
223.49417242782329
 20
191.58016963647242
 11
223.49417242782329
 21
166.58016963647242
  0
LINE
  8
_0-1_
  6
CONTINUOUS
 62
    7
 10
224.49417242782329
 20
226.58016963647242
 11
224.49417242782329
 21
201.58016963647242
  0
LINE
  8
_0-1_
  6
CONTINUOUS
 62
    7
 10
224.49417242782329
 20
191.58016963647242
 11
224.49417242782329
 21
166.58016963647242
  0
LINE
  8
_0-1_
  6
CONTINUOUS
 62
  136
 10
222.9941724279233
 20
226.58016963647242
 11
222.9941724279233
 21
201.58016963647242
  0
LINE
  8
_0-1_
  6
CONTINUOUS
 62
  136
 10
222.9941724279233
 20
191.58016963647242
 11
222.9941724279233
 21
166.58016963647242
  0
LINE
  8
_0-1_
  6
CONTINUOUS
 62
  136
 10
221.9941724279233
 20
226.58016963647242
 11
221.9941724279233
 21
201.58016963647242
  0
LINE
  8
_0-1_
  6
CONTINUOUS
 62
  136
 10
221.9941724279233
 20
191.58016963647242
 11
221.9941724279233
 21
166.58016963647242
  0
LINE
  8
_0-1_
  6
CONTINUOUS
 62
    7
 10
226.4941724278377
 20
226.58016963647242
 11
226.4941724278377
 21
201.58016963647242
  0
LINE
  8
_0-1_
  6
CONTINUOUS
 62
    7
 10
226.4941724278377
 20
191.58016963647242
 11
226.4941724278377
 21
166.58016963647242
  0
LINE
  8
_0-1_
  6
CONTINUOUS
 62
    7
 10
227.4941724278377
 20
226.58016963647242
 11
227.4941724278377
 21
201.58016963647242
  0
LINE
  8
_0-1_
  6
CONTINUOUS
 62
    7
 10
227.4941724278377
 20
191.58016963647242
 11
227.4941724278377
 21
166.58016963647242
  0
LINE
  8
_0-1_
  6
CONTINUOUS
 62
  136
 10
225.99417242793771
 20
226.58016963647242
 11
225.99417242793771
 21
201.58016963647242
  0
LINE
  8
_0-1_
  6
CONTINUOUS
 62
  136
 10
225.99417242793771
 20
191.58016963647242
 11
225.99417242793771
 21
166.58016963647242
  0
LINE
  8
_0-1_
  6
CONTINUOUS
 62
  136
 10
224.99417242793771
 20
226.58016963647242
 11
224.99417242793771
 21
201.58016963647242
  0
LINE
  8
_0-1_
  6
CONTINUOUS
 62
  136
 10
224.99417242793771
 20
191.58016963647242
 11
224.99417242793771
 21
166.58016963647242
  0
LINE
  8
_0-1_
  6
CONTINUOUS
 62
    7
 10
229.49417242785211
 20
226.58016963647242
 11
229.49417242785211
 21
201.58016963647242
  0
LINE
  8
_0-1_
  6
CONTINUOUS
 62
    7
 10
229.49417242785211
 20
191.58016963647242
 11
229.49417242785211
 21
166.58016963647242
  0
LINE
  8
_0-1_
  6
CONTINUOUS
 62
    7
 10
230.49417242785211
 20
226.58016963647242
 11
230.49417242785211
 21
201.58016963647242
  0
LINE
  8
_0-1_
  6
CONTINUOUS
 62
    7
 10
230.49417242785211
 20
191.58016963647242
 11
230.49417242785211
 21
166.58016963647242
  0
LINE
  8
_0-1_
  6
CONTINUOUS
 62
  136
 10
228.99417242795209
 20
226.58016963647242
 11
228.99417242795209
 21
201.58016963647242
  0
LINE
  8
_0-1_
  6
CONTINUOUS
 62
  136
 10
228.99417242795209
 20
191.58016963647242
 11
228.99417242795209
 21
166.58016963647242
  0
LINE
  8
_0-1_
  6
CONTINUOUS
 62
  136
 10
227.99417242795209
 20
226.58016963647242
 11
227.99417242795209
 21
201.58016963647242
  0
LINE
  8
_0-1_
  6
CONTINUOUS
 62
  136
 10
227.99417242795209
 20
191.58016963647242
 11
227.99417242795209
 21
166.58016963647242
  0
LINE
  8
_0-1_
  6
CONTINUOUS
 62
    7
 10
232.49417242786652
 20
226.58016963647242
 11
232.49417242786652
 21
201.58016963647242
  0
LINE
  8
_0-1_
  6
CONTINUOUS
 62
    7
 10
232.49417242786652
 20
191.58016963647242
 11
232.49417242786652
 21
166.58016963647242
  0
LINE
  8
_0-1_
  6
CONTINUOUS
 62
    7
 10
233.49417242786652
 20
226.58016963647242
 11
233.49417242786652
 21
201.58016963647242
  0
LINE
  8
_0-1_
  6
CONTINUOUS
 62
    7
 10
233.49417242786652
 20
191.58016963647242
 11
233.49417242786652
 21
166.58016963647242
  0
LINE
  8
_0-1_
  6
CONTINUOUS
 62
  136
 10
231.99417242796653
 20
226.58016963647242
 11
231.99417242796653
 21
201.58016963647242
  0
LINE
  8
_0-1_
  6
CONTINUOUS
 62
  136
 10
231.99417242796653
 20
191.58016963647242
 11
231.99417242796653
 21
166.58016963647242
  0
LINE
  8
_0-1_
  6
CONTINUOUS
 62
  136
 10
230.99417242796653
 20
226.58016963647242
 11
230.99417242796653
 21
201.58016963647242
  0
LINE
  8
_0-1_
  6
CONTINUOUS
 62
  136
 10
230.99417242796653
 20
191.58016963647242
 11
230.99417242796653
 21
166.58016963647242
  0
LINE
  8
_0-1_
  6
CONTINUOUS
 62
    7
 10
235.49417242788093
 20
226.58016963647242
 11
235.49417242788093
 21
201.58016963647242
  0
LINE
  8
_0-1_
  6
CONTINUOUS
 62
    7
 10
235.49417242788093
 20
191.58016963647242
 11
235.49417242788093
 21
166.58016963647242
  0
LINE
  8
_0-1_
  6
CONTINUOUS
 62
    7
 10
236.49417242788093
 20
226.58016963647242
 11
236.49417242788093
 21
201.58016963647242
  0
LINE
  8
_0-1_
  6
CONTINUOUS
 62
    7
 10
236.49417242788093
 20
191.58016963647242
 11
236.49417242788093
 21
166.58016963647242
  0
LINE
  8
_0-1_
  6
CONTINUOUS
 62
  136
 10
234.99417242798091
 20
226.58016963647242
 11
234.99417242798091
 21
201.58016963647242
  0
LINE
  8
_0-1_
  6
CONTINUOUS
 62
  136
 10
234.99417242798091
 20
191.58016963647242
 11
234.99417242798091
 21
166.58016963647242
  0
LINE
  8
_0-1_
  6
CONTINUOUS
 62
  136
 10
233.99417242798091
 20
226.58016963647242
 11
233.99417242798091
 21
201.58016963647242
  0
LINE
  8
_0-1_
  6
CONTINUOUS
 62
  136
 10
233.99417242798091
 20
191.58016963647242
 11
233.99417242798091
 21
166.58016963647242
  0
LINE
  8
_0-1_
  6
CONTINUOUS
 62
    7
 10
238.49417242789534
 20
226.58016963647242
 11
238.49417242789534
 21
201.58016963647242
  0
LINE
  8
_0-1_
  6
CONTINUOUS
 62
    7
 10
238.49417242789534
 20
191.58016963647242
 11
238.49417242789534
 21
166.58016963647242
  0
LINE
  8
_0-1_
  6
CONTINUOUS
 62
    7
 10
239.49417242789534
 20
226.58016963647242
 11
239.49417242789534
 21
201.58016963647242
  0
LINE
  8
_0-1_
  6
CONTINUOUS
 62
    7
 10
239.49417242789534
 20
191.58016963647242
 11
239.49417242789534
 21
166.58016963647242
  0
LINE
  8
_0-1_
  6
CONTINUOUS
 62
  136
 10
237.99417242799535
 20
226.58016963647242
 11
237.99417242799535
 21
201.58016963647242
  0
LINE
  8
_0-1_
  6
CONTINUOUS
 62
  136
 10
237.99417242799535
 20
191.58016963647242
 11
237.99417242799535
 21
166.58016963647242
  0
LINE
  8
_0-1_
  6
CONTINUOUS
 62
  136
 10
236.99417242799535
 20
226.58016963647242
 11
236.99417242799535
 21
201.58016963647242
  0
LINE
  8
_0-1_
  6
CONTINUOUS
 62
  136
 10
236.99417242799535
 20
191.58016963647242
 11
236.99417242799535
 21
166.58016963647242
  0
LINE
  8
_0-1_
  6
CONTINUOUS
 62
    7
 10
208.49417242775124
 20
226.58016963647242
 11
208.49417242775124
 21
201.45764399373493
  0
LINE
  8
_0-1_
  6
CONTINUOUS
 62
    7
 10
208.49417242775124
 20
191.70269527920991
 11
208.49417242775124
 21
166.58016963647242
  0
LINE
  8
_0-1_
  6
CONTINUOUS
 62
  136
 10
207.99417242785125
 20
226.58016963647242
 11
207.99417242785125
 21
201.31721990543076
  0
LINE
  8
_0-1_
  6
CONTINUOUS
 62
  136
 10
207.99417242785125
 20
191.84311936751411
 11
207.99417242785125
 21
166.58016963647242
  0
LINE
  8
_0-1_
  6
CONTINUOUS
 62
  136
 10
206.99417242785125
 20
226.58016963647242
 11
206.99417242785125
 21
200.85093344871581
  0
LINE
  8
_0-1_
  6
CONTINUOUS
 62
  136
 10
206.99417242785125
 20
192.30940582422906
 11
206.99417242785125
 21
166.58016963647242
  0
LINE
  8
_0-1_
  6
CONTINUOUS
 62
    7
 10
206.49417242773683
 20
226.58016963647242
 11
206.49417242773683
 21
200.5030910840575
  0
LINE
  8
_0-1_
  6
CONTINUOUS
 62
    7
 10
206.49417242773683
 20
192.65724818888737
 11
206.49417242773683
 21
166.58016963647242
  0
LINE
  8
_0-1_
  6
CONTINUOUS
 62
    7
 10
205.49417242773683
 20
226.58016963647242
 11
205.49417242773683
 21
199.44182841645014
  0
LINE
  8
_0-1_
  6
CONTINUOUS
 62
    7
 10
205.49417242773683
 20
193.71851085649473
 11
205.49417242773683
 21
166.58016963647242
  0
LINE
  8
_0-1_
  6
CONTINUOUS
 62
  136
 10
204.99417242783684
 20
226.58016963647242
 11
204.99417242783684
 21
198.53950118536704
  0
LINE
  8
_0-1_
  6
CONTINUOUS
 62
  136
 10
204.99417242783684
 20
194.62083808757782
 11
204.99417242783684
 21
166.58016963647242
  0
LINE
  8
_0-1_
  6
CONTINUOUS
 62
  136
 10
240.99417242800973
 20
226.58016963647242
 11
240.99417242800973
 21
201.56415284991252
  0
LINE
  8
_0-1_
  6
CONTINUOUS
 62
  136
 10
240.99417242800973
 20
191.59618642303235
 11
240.99417242800973
 21
166.58016963647242
  0
LINE
  8
_0-1_
  6
CONTINUOUS
 62
    7
 10
241.49417242790975
 20
226.58016963647242
 11
241.49417242790975
 21
201.49852297140166
  0
LINE
  8
_0-1_
  6
CONTINUOUS
 62
    7
 10
241.49417242790975
 20
191.66181630154321
 11
241.49417242790975
 21
166.58016963647242
  0
LINE
  8
_0-1_
  6
CONTINUOUS
 62
    7
 10
242.49417242790975
 20
226.58016963647242
 11
242.49417242790975
 21
201.20514760807001
  0
LINE
  8
_0-1_
  6
CONTINUOUS
 62
    7
 10
242.49417242790975
 20
191.95519166487483
 11
242.49417242790975
 21
166.58016963647242
  0
LINE
  8
_0-1_
  6
CONTINUOUS
 62
  136
 10
242.99417242802417
 20
226.58016963647242
 11
242.99417242802417
 21
200.96657272926845
  0
LINE
  8
_0-1_
  6
CONTINUOUS
 62
  136
 10
242.99417242802417
 20
192.19376654367639
 11
242.99417242802417
 21
166.58016963647242
  0
LINE
  8
_0-1_
  6
CONTINUOUS
 62
  136
 10
243.99417242802417
 20
226.58016963647242
 11
243.99417242802417
 21
200.24633299928311
  0
LINE
  8
_0-1_
  6
CONTINUOUS
 62
  136
 10
243.99417242802417
 20
192.91400627366176
 11
243.99417242802417
 21
166.58016963647242
  0
LINE
  8
_0-1_
  6
CONTINUOUS
 62
    7
 10
244.49417242792416
 20
226.58016963647242
 11
244.49417242792416
 21
199.70920537592281
  0
LINE
  8
_0-1_
  6
CONTINUOUS
 62
    7
 10
244.49417242792416
 20
193.45113389702206
 11
244.49417242792416
 21
166.58016963647242
  0
LINE
  8
_0-1_
  6
CONTINUOUS
 62
    7
 10
245.49417242792416
 20
226.58016963647242
 11
245.49417242792416
 21
197.57570284500062
  0
LINE
  8
_0-1_
  6
CONTINUOUS
 62
    7
 10
245.49417242792416
 20
195.58463642794422
 11
245.49417242792416
 21
166.58016963647242
  0
LINE
  8
_0-1_
  6
CENTER1
 62
    4
 10
128.50806860227499
 20
196.58016963647242
 11
324.53670498995763
 21
196.58016963647242
  0
POINT
  8
_0-9__
 62
    4
 10
124.49428342753508
 20
166.58016963647242
  0
POINT
  8
_0-9__
 62
    4
 10
124.49428342753508
 20
226.58016963647242
  0
LINE
  8
_0-9__
  6
CONTINUOUS
 62
    4
 10
123.49428342753508
 20
166.58016963647242
 11
131.49428342753509
 21
166.58016963647242
  0
LINE
  8
_0-9__
  6
CONTINUOUS
 62
    4
 10
123.49428342753508
 20
226.58016963647242
 11
131.49428342753509
 21
226.58016963647242
  0
LINE
  8
_0-9__
  6
CONTINUOUS
 62
    4
 10
124.49428342753508
 20
166.58016963647242
 11
124.49428342753508
 21
226.58016963647242
  0
TEXT
  8
_0-9__
 62
    3
 10
123.99428342753508
 20
194.45516963647242
 40
5
 41
0.8
 50
90
  1
60
  0
POINT
  8
_0-9__
 62
    4
 10
225.25984255429427
 20
191.58016963647242
  0
POINT
  8
_0-9__
 62
    4
 10
225.25984255429427
 20
201.58016963647242
  0
POINT
  8
_0-9__
 62
    4
 10
132.49428342753509
 20
154.58016963647242
  0
POINT
  8
_0-9__
 62
    4
 10
204.59428328318654
 20
154.58016963647242
  0
LINE
  8
_0-9__
  6
CONTINUOUS
 62
    4
 10
132.49428342753509
 20
153.58016963647242
 11
132.49428342753509
 21
165.58016963647242
  0
LINE
  8
_0-9__
  6
CONTINUOUS
 62
    4
 10
204.59428328318654
 20
153.58016963647242
 11
204.59428328318654
 21
195.58016963647242
  0
LINE
  8
_0-9__
  6
CONTINUOUS
 62
    4
 10
132.49428342753509
 20
154.58016963647242
 11
204.59428328318654
 21
154.58016963647242
  0
TEXT
  8
_0-9__
 62
    3
 10
164.16928335536082
 20
155.08016963647242
 40
5
 41
0.8
 50
0
  1
72.1
  0
POINT
  8
_0-9__
 62
    4
 10
245.59428328318654
 20
154.58016963647242
  0
LINE
  8
_0-9__
  6
CONTINUOUS
 62
    4
 10
245.59428328318654
 20
153.58016963647242
 11
245.59428328318654
 21
195.58016963647242
  0
LINE
  8
_0-9__
  6
CONTINUOUS
 62
    4
 10
204.59428328318654
 20
154.58016963647242
 11
245.59428328318654
 21
154.58016963647242
  0
TEXT
  8
_0-9__
 62
    3
 10
222.96928328318654
 20
155.08016963647242
 40
5
 41
0.8
 50
0
  1
41
  0
POINT
  8
_0-9__
 62
    4
 10
318.49428342753509
 20
154.58016963647242
  0
LINE
  8
_0-9__
  6
CONTINUOUS
 62
    4
 10
318.49428342753509
 20
153.58016963647242
 11
318.49428342753509
 21
165.58016963647242
  0
LINE
  8
_0-9__
  6
CONTINUOUS
 62
    4
 10
245.59428328318654
 20
154.58016963647242
 11
318.49428342753509
 21
154.58016963647242
  0
TEXT
  8
_0-9__
 62
    3
 10
277.66928335536079
 20
155.08016963647242
 40
5
 41
0.8
 50
0
  1
72.9
  0
LINE
  8
_0-9__
  6
CONTINUOUS
 62
    4
 10
225.25984255429427
 20
191.58016963647242
 11
225.25984255429427
 21
201.58016963647242
  0
TEXT
  8
_0-9__
 62
    3
 10
224.75984255429427
 20
194.45516963647242
 40
5
 41
0.8
 50
90
  1
10
  0
TEXT
  8
_0-a__
 62
    3
 10
136.55372897562847
 20
16.25
 40
5
 41
0.8
 50
0
  1
折板用吊金具
  0
ENDSEC
  0
EOF
